  0
SECTION
  2
HEADER
  9
$ACADVER
  1
AC1014
  9
$ACADMAINTVER
 70
     9
  9
$DWGCODEPAGE
  3
ANSI_1250
  9
$INSBASE
 10
0.0
 20
0.0
 30
0.0
  9
$EXTMIN
 10
-1030.0
 20
1145.0
 30
0.0
  9
$EXTMAX
 10
4315.0
 20
3935.0
 30
2800.000000000078
  9
$LIMMIN
 10
0.0
 20
0.0
  9
$LIMMAX
 10
12.0
 20
9.0
  9
$ORTHOMODE
 70
     0
  9
$REGENMODE
 70
     1
  9
$FILLMODE
 70
     1
  9
$QTEXTMODE
 70
     0
  9
$MIRRTEXT
 70
     1
  9
$DRAGMODE
 70
     2
  9
$LTSCALE
 40
1.0
  9
$OSMODE
 70
    37
  9
$ATTMODE
 70
     1
  9
$TEXTSIZE
 40
0.2
  9
$TRACEWID
 40
0.05
  9
$TEXTSTYLE
  7
STANDARD
  9
$CLAYER
  8
BODEN
  9
$CELTYPE
  6
BYLAYER
  9
$CECOLOR
 62
   256
  9
$CELTSCALE
 40
1.0
  9
$DELOBJ
 70
     1
  9
$DISPSILH
 70
     0
  9
$DIMSCALE
 40
1.0
  9
$DIMASZ
 40
0.2
  9
$DIMEXO
 40
0.05
  9
$DIMDLI
 40
0.38
  9
$DIMRND
 40
0.0
  9
$DIMDLE
 40
0.0
  9
$DIMEXE
 40
0.2
  9
$DIMTP
 40
0.0
  9
$DIMTM
 40
0.0
  9
$DIMTXT
 40
0.2
  9
$DIMCEN
 40
0.09
  9
$DIMTSZ
 40
0.0
  9
$DIMTOL
 70
     0
  9
$DIMLIM
 70
     0
  9
$DIMTIH
 70
     0
  9
$DIMTOH
 70
     0
  9
$DIMSE1
 70
     0
  9
$DIMSE2
 70
     0
  9
$DIMTAD
 70
     0
  9
$DIMZIN
 70
     0
  9
$DIMBLK
  1
VDDIM_DEFAULT
  9
$DIMASO
 70
     1
  9
$DIMSHO
 70
     1
  9
$DIMPOST
  1

  9
$DIMAPOST
  1

  9
$DIMALT
 70
     0
  9
$DIMALTD
 70
     2
  9
$DIMALTF
 40
25.4
  9
$DIMLFAC
 40
1.0
  9
$DIMTOFL
 70
     1
  9
$DIMTVP
 40
0.0
  9
$DIMTIX
 70
     1
  9
$DIMSOXD
 70
     0
  9
$DIMSAH
 70
     0
  9
$DIMBLK1
  1

  9
$DIMBLK2
  1

  9
$DIMSTYLE
  2
STANDARD
  9
$DIMCLRD
 70
     0
  9
$DIMCLRE
 70
   256
  9
$DIMCLRT
 70
   256
  9
$DIMTFAC
 40
1.0
  9
$DIMGAP
 40
0.09
  9
$DIMJUST
 70
     0
  9
$DIMSD1
 70
     0
  9
$DIMSD2
 70
     0
  9
$DIMTOLJ
 70
     1
  9
$DIMTZIN
 70
     0
  9
$DIMALTZ
 70
     0
  9
$DIMALTTZ
 70
     0
  9
$DIMFIT
 70
     3
  9
$DIMUPT
 70
     1
  9
$DIMUNIT
 70
     2
  9
$DIMDEC
 70
     4
  9
$DIMTDEC
 70
     4
  9
$DIMALTU
 70
     2
  9
$DIMALTTD
 70
     2
  9
$DIMTXSTY
  7
STANDARD
  9
$DIMAUNIT
 70
     0
  9
$LUNITS
 70
     2
  9
$LUPREC
 70
     4
  9
$SKETCHINC
 40
0.1
  9
$FILLETRAD
 40
0.5
  9
$AUNITS
 70
     0
  9
$AUPREC
 70
     0
  9
$MENU
  1
.
  9
$ELEVATION
 40
0.0
  9
$PELEVATION
 40
0.0
  9
$THICKNESS
 40
0.0
  9
$LIMCHECK
 70
     0
  9
$BLIPMODE
 70
     0
  9
$CHAMFERA
 40
0.5
  9
$CHAMFERB
 40
0.5
  9
$CHAMFERC
 40
1.0
  9
$CHAMFERD
 40
0.0
  9
$SKPOLY
 70
     0
  9
$TDCREATE
 40
2455322.393017835
  9
$TDUPDATE
 40
2455322.434684514
  9
$TDINDWG
 40
0.0000000116
  9
$TDUSRTIMER
 40
0.0000000116
  9
$USRTIMER
 70
     1
  9
$ANGBASE
 50
0.0
  9
$ANGDIR
 70
     0
  9
$PDMODE
 70
     0
  9
$PDSIZE
 40
0.0
  9
$PLINEWID
 40
0.0
  9
$COORDS
 70
     1
  9
$SPLFRAME
 70
     0
  9
$SPLINETYPE
 70
     6
  9
$SPLINESEGS
 70
     8
  9
$ATTDIA
 70
     0
  9
$ATTREQ
 70
     1
  9
$HANDLING
 70
     1
  9
$HANDSEED
  5
2E4
  9
$SURFTAB1
 70
     6
  9
$SURFTAB2
 70
     6
  9
$SURFTYPE
 70
     6
  9
$SURFU
 70
     6
  9
$SURFV
 70
     6
  9
$UCSNAME
  2

  9
$UCSORG
 10
0.0
 20
0.0
 30
0.0
  9
$UCSXDIR
 10
1.0
 20
0.0
 30
0.0
  9
$UCSYDIR
 10
0.0
 20
1.0
 30
0.0
  9
$PUCSNAME
  2

  9
$PUCSORG
 10
0.0
 20
0.0
 30
0.0
  9
$PUCSXDIR
 10
1.0
 20
0.0
 30
0.0
  9
$PUCSYDIR
 10
0.0
 20
1.0
 30
0.0
  9
$USERI1
 70
     0
  9
$USERI2
 70
     0
  9
$USERI3
 70
     0
  9
$USERI4
 70
     0
  9
$USERI5
 70
     0
  9
$USERR1
 40
0.0
  9
$USERR2
 40
0.0
  9
$USERR3
 40
0.0
  9
$USERR4
 40
0.0
  9
$USERR5
 40
0.0
  9
$WORLDVIEW
 70
     1
  9
$SHADEDGE
 70
     3
  9
$SHADEDIF
 70
    70
  9
$TILEMODE
 70
     1
  9
$MAXACTVP
 70
    64
  9
$PINSBASE
 10
0.0
 20
0.0
 30
0.0
  9
$PLIMCHECK
 70
     0
  9
$PEXTMIN
 10
1.000000000000000E+20
 20
1.000000000000000E+20
 30
1.000000000000000E+20
  9
$PEXTMAX
 10
-1.000000000000000E+20
 20
-1.000000000000000E+20
 30
-1.000000000000000E+20
  9
$PLIMMIN
 10
0.0
 20
0.0
  9
$PLIMMAX
 10
12.0
 20
9.0
  9
$UNITMODE
 70
     0
  9
$VISRETAIN
 70
     1
  9
$PLINEGEN
 70
     0
  9
$PSLTSCALE
 70
     1
  9
$TREEDEPTH
 70
  3020
  9
$PICKSTYLE
 70
     1
  9
$CMLSTYLE
  2
STANDARD
  9
$CMLJUST
 70
     0
  9
$CMLSCALE
 40
1.0
  9
$PROXYGRAPHICS
 70
     1
  9
$MEASUREMENT
 70
     0
  0
ENDSEC
  0
SECTION
  2
CLASSES
  0
CLASS
  1
ACDBDICTIONARYWDFLT
  2
AcDbDictionaryWithDefault
  3
ObjectDBX Classes
 90
        0
280
     0
281
     0
  0
CLASS
  1
XRECORD
  2
AcDbXrecord
  3
AutoCAD 2000
 90
        0
280
     0
281
     0
  0
CLASS
  1
LWPOLYLINE
  2
AcDbPolyline
  3
AutoCAD 2000
 90
        0
280
     0
281
     1
  0
CLASS
  1
HATCH
  2
AcDbHatch
  3
AutoCAD 2000
 90
        0
280
     0
281
     1
  0
CLASS
  1
ACDBPLACEHOLDER
  2
AcDbPlaceHolder
  3
ObjectDBX Classes
 90
        0
280
     0
281
     0
  0
CLASS
  1
LAYOUT
  2
AcDbLayout
  3
ObjectDBX Classes
 90
        0
280
     0
281
     0
  0
ENDSEC
  0
SECTION
  2
TABLES
  0
TABLE
  2
VPORT
  5
37
330
0
100
AcDbSymbolTable
 70
     2
  0
VPORT
  5
58
102
{ACAD_XDICTIONARY
360
2E2
102
}
330
37
100
AcDbSymbolTableRecord
100
AcDbViewportTableRecord
  2
*ACTIVE
 70
     0
 10
0.0
 20
0.0
 11
1.0
 21
1.0
 12
-703.5712472808802
 22
2770.960099909902
 13
0.0
 23
0.0
 14
1.0
 24
1.0
 15
1.0
 25
1.0
 16
-0.5792279653396163
 26
-0.579227965339509
 36
0.5735764363510594
 17
0.0
 27
0.0
 37
0.0
 40
5713.686489110201
 41
0.0031077583254692
 42
50.0
 43
0.0
 44
0.0
 50
0.0
 51
0.0
 71
     0
 72
   100
 73
     1
 74
     3
 75
     0
 76
     0
 77
     0
 78
     0
  0
ENDTAB
  0
TABLE
  2
LTYPE
  5
34
330
0
100
AcDbSymbolTable
 70
    25
  0
LTYPE
  5
43
330
34
100
AcDbSymbolTableRecord
100
AcDbLinetypeTableRecord
  2
BYBLOCK
 70
     0
  3

 72
    65
 73
     0
 40
0.0
  0
LTYPE
  5
44
330
34
100
AcDbSymbolTableRecord
100
AcDbLinetypeTableRecord
  2
BYLAYER
 70
     0
  3

 72
    65
 73
     0
 40
0.0
  0
LTYPE
  5
45
330
34
100
AcDbSymbolTableRecord
100
AcDbLinetypeTableRecord
  2
CONTINUOUS
 70
     0
  3
Solid line
 72
    65
 73
     0
 40
0.0
  0
LTYPE
  5
60
330
34
100
AcDbSymbolTableRecord
100
AcDbLinetypeTableRecord
  2
CENTER
 70
     0
  3
Center ____ _ ____ _ ____ _ ____ _ ____ _ ____
 72
    65
 73
     4
 40
2.0
 49
1.25
 74
     0
 49
-0.25
 74
     0
 49
0.25
 74
     0
 49
-0.25
 74
     0
  0
LTYPE
  5
61
330
34
100
AcDbSymbolTableRecord
100
AcDbLinetypeTableRecord
  2
DASHDOT
 70
     0
  3
Dashdot __ . __ . __ . __ . __ . __ . __ . __
 72
    65
 73
     4
 40
1.0
 49
0.5
 74
     0
 49
-0.25
 74
     0
 49
0.0
 74
     0
 49
-0.25
 74
     0
  0
LTYPE
  5
62
330
34
100
AcDbSymbolTableRecord
100
AcDbLinetypeTableRecord
  2
DASHED
 70
     0
  3
Dashed __ __ __ __ __ __ __ __ __ __ __ __ __ _
 72
    65
 73
     2
 40
0.75
 49
0.5
 74
     0
 49
-0.25
 74
     0
  0
LTYPE
  5
63
330
34
100
AcDbSymbolTableRecord
100
AcDbLinetypeTableRecord
  2
HIDDEN
 70
     0
  3
Hidden __ __ __ __ __ __ __ __ __ __ __ __ __ __
 72
    65
 73
     2
 40
0.375
 49
0.25
 74
     0
 49
-0.125
 74
     0
  0
LTYPE
  5
64
330
34
100
AcDbSymbolTableRecord
100
AcDbLinetypeTableRecord
  2
HIDDEN2
 70
     0
  3
Hidden2 _ _ _ _ _ _ _ _ _ _ _ _ _ _ _ _ _ 
 72
    65
 73
     2
 40
0.1875
 49
0.125
 74
     0
 49
-0.0625
 74
     0
  0
LTYPE
  5
65
330
34
100
AcDbSymbolTableRecord
100
AcDbLinetypeTableRecord
  2
BORDER
 70
     0
  3
Border __ __ . __ __ . __ __ . __ __ . __ __ .
 72
    65
 73
     6
 40
1.75
 49
0.5
 74
     0
 49
-0.25
 74
     0
 49
0.5
 74
     0
 49
-0.25
 74
     0
 49
0.0
 74
     0
 49
-0.25
 74
     0
  0
LTYPE
  5
66
330
34
100
AcDbSymbolTableRecord
100
AcDbLinetypeTableRecord
  2
BORDER2
 70
     0
  3
Border2 __.__.__.__.__.__.__.__.__.__.__.
 72
    65
 73
     6
 40
0.875
 49
0.25
 74
     0
 49
-0.125
 74
     0
 49
0.25
 74
     0
 49
-0.125
 74
     0
 49
0.0
 74
     0
 49
-0.125
 74
     0
  0
LTYPE
  5
67
330
34
100
AcDbSymbolTableRecord
100
AcDbLinetypeTableRecord
  2
BORDERX2
 70
     0
  3
Borderx2  ____  ____  .  ____  ____  .  ___
 72
    65
 73
     6
 40
3.5
 49
1.0
 74
     0
 49
-0.5
 74
     0
 49
1.0
 74
     0
 49
-0.5
 74
     0
 49
0.0
 74
     0
 49
-0.5
 74
     0
  0
LTYPE
  5
68
330
34
100
AcDbSymbolTableRecord
100
AcDbLinetypeTableRecord
  2
CENTER2
 70
     0
  3
Center2  ___ _ ___ _ ___ _ ___ _ ___ _ ___
 72
    65
 73
     4
 40
1.125
 49
0.75
 74
     0
 49
-0.125
 74
     0
 49
0.125
 74
     0
 49
-0.125
 74
     0
  0
LTYPE
  5
69
330
34
100
AcDbSymbolTableRecord
100
AcDbLinetypeTableRecord
  2
CENTERX2
 70
     0
  3
Centerx2  ________  __  ________  __  _____
 72
    65
 73
     4
 40
4.0
 49
2.5
 74
     0
 49
-0.5
 74
     0
 49
0.5
 74
     0
 49
-0.5
 74
     0
  0
LTYPE
  5
6A
330
34
100
AcDbSymbolTableRecord
100
AcDbLinetypeTableRecord
  2
DASHDOT2
 70
     0
  3
Dashdot2  _._._._._._._._._._._._._._._.
 72
    65
 73
     4
 40
0.5
 49
0.25
 74
     0
 49
-0.125
 74
     0
 49
0.0
 74
     0
 49
-0.125
 74
     0
  0
LTYPE
  5
6B
330
34
100
AcDbSymbolTableRecord
100
AcDbLinetypeTableRecord
  2
DASHDOTX2
 70
     0
  3
Dashdotx2 ____  .  ____  .  ____  .  ___
 72
    65
 73
     4
 40
2.0
 49
1.0
 74
     0
 49
-0.5
 74
     0
 49
0.0
 74
     0
 49
-0.5
 74
     0
  0
LTYPE
  5
6C
330
34
100
AcDbSymbolTableRecord
100
AcDbLinetypeTableRecord
  2
DASHED2
 70
     0
  3
Dashed2 _ _ _ _ _ _ _ _ _ _ _ _ _ _ _ _ _ 
 72
    65
 73
     2
 40
0.375
 49
0.25
 74
     0
 49
-0.125
 74
     0
  0
LTYPE
  5
6D
330
34
100
AcDbSymbolTableRecord
100
AcDbLinetypeTableRecord
  2
DASHEDX2
 70
     0
  3
Dashedx2 ____  ____  ____  ____  ____  ___
 72
    65
 73
     2
 40
1.5
 49
1.0
 74
     0
 49
-0.5
 74
     0
  0
LTYPE
  5
6E
330
34
100
AcDbSymbolTableRecord
100
AcDbLinetypeTableRecord
  2
DIVIDE
 70
     0
  3
Divide ____ . . ____ . . ____ . . ____ . . ____
 72
    65
 73
     6
 40
1.25
 49
0.5
 74
     0
 49
-0.25
 74
     0
 49
0.0
 74
     0
 49
-0.25
 74
     0
 49
0.0
 74
     0
 49
-0.25
 74
     0
  0
LTYPE
  5
6F
330
34
100
AcDbSymbolTableRecord
100
AcDbLinetypeTableRecord
  2
DIVIDE2
 70
     0
  3
Divide2 __..__..__..__..__..__..__..__.._
 72
    65
 73
     6
 40
0.625
 49
0.25
 74
     0
 49
-0.125
 74
     0
 49
0.0
 74
     0
 49
-0.125
 74
     0
 49
0.0
 74
     0
 49
-0.125
 74
     0
  0
LTYPE
  5
70
330
34
100
AcDbSymbolTableRecord
100
AcDbLinetypeTableRecord
  2
DIVIDEX2
 70
     0
  3
Dividex2 ________  .  .  ________  .  .  _
 72
    65
 73
     6
 40
2.5
 49
1.0
 74
     0
 49
-0.5
 74
     0
 49
0.0
 74
     0
 49
-0.5
 74
     0
 49
0.0
 74
     0
 49
-0.5
 74
     0
  0
LTYPE
  5
71
330
34
100
AcDbSymbolTableRecord
100
AcDbLinetypeTableRecord
  2
DOT
 70
     0
  3
Dot . . . . . . . . . . . . . . . . . . . . . . . .
 72
    65
 73
     2
 40
0.25
 49
0.0
 74
     0
 49
-0.25
 74
     0
  0
LTYPE
  5
72
330
34
100
AcDbSymbolTableRecord
100
AcDbLinetypeTableRecord
  2
DOT2
 70
     0
  3
Dot2 ........................................
 72
    65
 73
     2
 40
0.125
 49
0.0
 74
     0
 49
-0.125
 74
     0
  0
LTYPE
  5
73
330
34
100
AcDbSymbolTableRecord
100
AcDbLinetypeTableRecord
  2
DOTX2
 70
     0
  3
Dotx2 .  .  .  .  .  .  .  .  .  .  .  .  .  .
 72
    65
 73
     2
 40
0.5
 49
0.0
 74
     0
 49
-0.5
 74
     0
  0
LTYPE
  5
74
330
34
100
AcDbSymbolTableRecord
100
AcDbLinetypeTableRecord
  2
HIDDENX2
 70
     0
  3
Hiddenx2 ____ ____ ____ ____ ____ ____ ____ 
 72
    65
 73
     2
 40
0.75
 49
0.5
 74
     0
 49
-0.25
 74
     0
  0
LTYPE
  5
75
330
34
100
AcDbSymbolTableRecord
100
AcDbLinetypeTableRecord
  2
PHANTOM
 70
     0
  3
Phantom ______  __  __  ______  __  __  ______ 
 72
    65
 73
     6
 40
2.5
 49
1.25
 74
     0
 49
-0.25
 74
     0
 49
0.25
 74
     0
 49
-0.25
 74
     0
 49
0.25
 74
     0
 49
-0.25
 74
     0
  0
LTYPE
  5
76
330
34
100
AcDbSymbolTableRecord
100
AcDbLinetypeTableRecord
  2
PHANTOM2
 70
     0
  3
Phantom2 ___ _ _ ___ _ _ ___ _ _ ___ _ _
 72
    65
 73
     6
 40
1.25
 49
0.625
 74
     0
 49
-0.125
 74
     0
 49
0.125
 74
     0
 49
-0.125
 74
     0
 49
0.125
 74
     0
 49
-0.125
 74
     0
  0
LTYPE
  5
77
330
34
100
AcDbSymbolTableRecord
100
AcDbLinetypeTableRecord
  2
PHANTOMX2
 70
     0
  3
Phantomx2 ____________    ____    ____   _
 72
    65
 73
     6
 40
5.0
 49
2.5
 74
     0
 49
-0.5
 74
     0
 49
0.5
 74
     0
 49
-0.5
 74
     0
 49
0.5
 74
     0
 49
-0.5
 74
     0
  0
ENDTAB
  0
TABLE
  2
LAYER
  5
31
330
0
100
AcDbSymbolTable
 70
     4
  0
LAYER
  5
3F
330
31
100
AcDbSymbolTableRecord
100
AcDbLayerTableRecord
  2
0
 70
     0
 62
     7
  6
CONTINUOUS
  0
LAYER
  5
9
330
31
100
AcDbSymbolTableRecord
100
AcDbLayerTableRecord
  2
HOLME
 70
     0
 62
   247
  6
CONTINUOUS
  0
LAYER
  5
A
330
31
100
AcDbSymbolTableRecord
100
AcDbLayerTableRecord
  2
STUFEN
 70
     0
 62
   248
  6
CONTINUOUS
  0
LAYER
  5
B
330
31
100
AcDbSymbolTableRecord
100
AcDbLayerTableRecord
  2
BODEN
 70
     0
 62
     7
  6
CONTINUOUS
  0
ENDTAB
  0
TABLE
  2
STYLE
  5
32
330
0
100
AcDbSymbolTable
 70
     1
  0
STYLE
  5
40
330
32
100
AcDbSymbolTableRecord
100
AcDbTextStyleTableRecord
  2
STANDARD
 70
     0
 40
0.0
 41
1.0
 50
0.0
 71
     0
 42
0.2
  3
Arial
  4

1001
ACAD
1000
Arial
1071
        0
  0
ENDTAB
  0
TABLE
  2
VIEW
  5
35
330
0
100
AcDbSymbolTable
 70
     0
  0
ENDTAB
  0
TABLE
  2
UCS
  5
36
330
0
100
AcDbSymbolTable
 70
     0
  0
ENDTAB
  0
TABLE
  2
APPID
  5
38
330
0
100
AcDbSymbolTable
 70
     6
  0
APPID
  5
41
330
38
100
AcDbSymbolTableRecord
100
AcDbRegAppTableRecord
  2
ACAD
 70
     0
  0
APPID
  5
59
330
38
100
AcDbSymbolTableRecord
100
AcDbRegAppTableRecord
  2
VD_INVISIBLE_NOT_FOR_READ
 70
     0
  0
APPID
  5
5A
330
38
100
AcDbSymbolTableRecord
100
AcDbRegAppTableRecord
  2
VD_TEMPHATCH
 70
     0
  0
APPID
  5
5B
330
38
100
AcDbSymbolTableRecord
100
AcDbRegAppTableRecord
  2
VDEXTRAPARAM
 70
     0
  0
APPID
  5
5C
330
38
100
AcDbSymbolTableRecord
100
AcDbRegAppTableRecord
  2
PE_URL
 70
     0
  0
APPID
  5
5D
330
38
100
AcDbSymbolTableRecord
100
AcDbRegAppTableRecord
  2
VD_UNKNOWN
 70
     0
  0
ENDTAB
  0
TABLE
  2
DIMSTYLE
  5
39
330
0
100
AcDbSymbolTable
 70
     1
  0
DIMSTYLE
105
56
330
39
100
AcDbSymbolTableRecord
100
AcDbDimStyleTableRecord
  2
STANDARD
 70
     0
  3

  4

  5
VDDIM_DEFAULT
  6

  7

 40
1.0
 41
0.2
 42
0.05
 43
0.38
 44
0.2
 45
0.0
 46
0.0
 47
0.0
 48
0.0
140
0.2
141
0.09
142
0.0
143
25.4
144
1.0
145
0.0
146
1.0
147
0.09
 71
     0
 72
     0
 73
     0
 74
     0
 75
     0
 76
     0
 77
     0
 78
     0
170
     0
171
     2
172
     1
173
     0
174
     1
175
     0
176
     0
177
   256
178
   256
270
     2
271
     4
272
     4
273
     2
274
     2
340
40
275
     0
280
     0
281
     0
282
     0
283
     1
284
     0
285
     0
286
     0
287
     3
288
     1
  0
ENDTAB
  0
TABLE
  2
BLOCK_RECORD
  5
30
330
0
100
AcDbSymbolTable
 70
     3
  0
BLOCK_RECORD
  5
4E
330
30
100
AcDbSymbolTableRecord
100
AcDbBlockTableRecord
  2
*MODEL_SPACE
  0
BLOCK_RECORD
  5
4A
330
30
100
AcDbSymbolTableRecord
100
AcDbBlockTableRecord
  2
*PAPER_SPACE
  0
BLOCK_RECORD
  5
6
330
30
100
AcDbSymbolTableRecord
100
AcDbBlockTableRecord
  2
VDDIM_DEFAULT
  0
BLOCK_RECORD
  5
8
330
30
100
AcDbSymbolTableRecord
100
AcDbBlockTableRecord
  2
VDDIM_NONE
  0
ENDTAB
  0
ENDSEC
  0
SECTION
  2
BLOCKS
  0
BLOCK
  5
4F
330
4E
100
AcDbEntity
  8
0
100
AcDbBlockBegin
  2
*MODEL_SPACE
 70
     0
 71
     0
 10
0.0
 20
0.0
 30
0.0
  3
*MODEL_SPACE
  1

  0
ENDBLK
  5
50
330
4E
100
AcDbEntity
  8
0
100
AcDbBlockEnd
  0
BLOCK
  5
4B
330
4A
100
AcDbEntity
 67
     1
  8
0
100
AcDbBlockBegin
  2
*PAPER_SPACE
 70
     0
 71
     0
 10
0.0
 20
0.0
 30
0.0
  3
*PAPER_SPACE
  1

  0
ENDBLK
  5
4C
330
4A
100
AcDbEntity
 67
     1
  8
0
100
AcDbBlockEnd
  0
BLOCK
  5
78
330
6
100
AcDbEntity
  8
0
100
AcDbBlockBegin
  2
VDDIM_DEFAULT
 70
     0
 71
     0
 10
0.0
 20
0.0
 30
0.0
  3
VDDIM_DEFAULT
  1

  0
LWPOLYLINE
  5
7
330
6
100
AcDbEntity
  8
0
  6
CONTINUOUS
 62
     0
100
AcDbPolyline
 90
        4
 70
     0
 43
0.0
 10
0.0
 20
0.0
 10
-1.0
 20
-0.1665
 10
-1.0
 20
0.1665
 10
0.0
 20
0.0
1001
VDEXTRAPARAM
1071
        1
1071
        0
1071
        0
1040
1.0
1000

1000

1040
0.0
1040
0.0
  0
HATCH
  5
7C
330
6
100
AcDbEntity
  8
0
  6
CONTINUOUS
 62
     0
100
AcDbHatch
 10
0.0
 20
0.0
 30
0.0
210
0.0
220
0.0
230
1.0
  2
SOLID
 70
     1
 71
     0
 91
        1
 92
        2
 72
     0
 73
     1
 93
        3
 10
0.0
 20
0.0
 10
-1.0
 20
-0.1665
 10
-1.0
 20
0.1665
 97
        0
 75
     0
 76
     1
 98
        1
 10
0.0
 20
0.0
1001
VDEXTRAPARAM
1071
        1
1071
        0
1071
        0
1040
1.0
1000

1000

1040
0.0
1040
0.0
1001
VD_TEMPHATCH
1000
VD_TEMPHATCH
  0
ENDBLK
  5
79
330
6
100
AcDbEntity
  8
0
100
AcDbBlockEnd
  0
BLOCK
  5
7A
330
8
100
AcDbEntity
  8
0
100
AcDbBlockBegin
  2
VDDIM_NONE
 70
     0
 71
     0
 10
0.0
 20
0.0
 30
0.0
  3
VDDIM_NONE
  1

  0
ENDBLK
  5
7B
330
8
100
AcDbEntity
  8
0
100
AcDbBlockEnd
  0
ENDSEC
  0
SECTION
  2
ENTITIES
  0
LWPOLYLINE
  5
C
330
4E
100
AcDbEntity
  8
HOLME
100
AcDbPolyline
 90
       38
 70
     0
 43
0.0
 38
2949.999999999995
 10
80.0
 20
206.9548909889123
 10
-161.2474064562863
 20
405.289829032197
 10
-384.2474064562863
 20
588.6231623655303
 10
-607.2474064562863
 20
771.9564956988637
 10
-830.2474064562863
 20
955.2898290321971
 10
-1053.247406456286
 20
1138.62316236553
 10
-1276.247406456286
 20
1321.956495698864
 10
-1499.247406456286
 20
1505.289829032197
 10
-1722.247406456286
 20
1688.62316236553
 10
-1945.247406456286
 20
1871.956495698864
 10
-2168.247406456286
 20
2055.289829032197
 10
-2391.247406456286
 20
2238.62316236553
 10
-2614.247406456286
 20
2421.956495698864
 10
-2837.247406456286
 20
2605.289829032197
 10
-3074.085778051764
 20
2800.000000000078
 10
-3074.085778051764
 20
2800.000000000078
 10
-3315.0
 20
2800.000000000078
 10
-3315.0
 20
2800.000000000078
 10
-3315.0
 20
2620.608011852324
 10
-3315.0
 20
2620.608011852324
 10
-3153.753353542473
 20
2488.043504301293
 10
-2930.753353542473
 20
2304.71017096796
 10
-2707.753353542473
 20
2121.376837634626
 10
-2484.753353542473
 20
1938.043504301293
 10
-2261.753353542473
 20
1754.71017096796
 10
-2038.753353542473
 20
1571.376837634626
 10
-1815.753353542473
 20
1388.043504301293
 10
-1592.753353542473
 20
1204.71017096796
 10
-1369.753353542473
 20
1021.376837634626
 10
-1146.753353542473
 20
838.0435043012926
 10
-923.7533535424728
 20
654.7101709679592
 10
-700.7533535424728
 20
471.3768376346259
 10
-477.7533535424728
 20
288.0435043012926
 10
-127.3877092197228
 20
0.0000000000781294
 10
-127.3877092197228
 20
0.0000000000781294
 10
80.0
 20
0.0000000000781294
 10
80.0
 20
0.0000000000781294
 10
80.0
 20
206.9548909889123
210
0.0
220
1.0
230
0.0
  0
POLYLINE
  5
D
330
4E
100
AcDbEntity
  8
HOLME
100
AcDbPolyFaceMesh
 66
     1
 10
0.0
 20
0.0
 30
0.0
 70
    64
 71
    76
 72
    71
  0
VERTEX
  5
7E
330
D
100
AcDbEntity
  8
0
100
AcDbVertex
100
AcDbPolyFaceMeshVertex
 10
-80.0
 20
2949.999999999995
 30
206.9548909889123
 70
   192
  0
VERTEX
  5
7F
330
D
100
AcDbEntity
  8
0
100
AcDbVertex
100
AcDbPolyFaceMeshVertex
 10
161.2474064562863
 20
2949.999999999989
 30
405.289829032197
 70
   192
  0
VERTEX
  5
80
330
D
100
AcDbEntity
  8
0
100
AcDbVertex
100
AcDbPolyFaceMeshVertex
 10
384.2474064562863
 20
2949.999999999985
 30
588.6231623655303
 70
   192
  0
VERTEX
  5
81
330
D
100
AcDbEntity
  8
0
100
AcDbVertex
100
AcDbPolyFaceMeshVertex
 10
607.2474064562863
 20
2949.99999999998
 30
771.9564956988637
 70
   192
  0
VERTEX
  5
82
330
D
100
AcDbEntity
  8
0
100
AcDbVertex
100
AcDbPolyFaceMeshVertex
 10
830.2474064562863
 20
2949.999999999975
 30
955.2898290321971
 70
   192
  0
VERTEX
  5
83
330
D
100
AcDbEntity
  8
0
100
AcDbVertex
100
AcDbPolyFaceMeshVertex
 10
1053.247406456286
 20
2949.99999999997
 30
1138.62316236553
 70
   192
  0
VERTEX
  5
84
330
D
100
AcDbEntity
  8
0
100
AcDbVertex
100
AcDbPolyFaceMeshVertex
 10
1276.247406456286
 20
2949.999999999965
 30
1321.956495698864
 70
   192
  0
VERTEX
  5
85
330
D
100
AcDbEntity
  8
0
100
AcDbVertex
100
AcDbPolyFaceMeshVertex
 10
1499.247406456286
 20
2949.99999999996
 30
1505.289829032197
 70
   192
  0
VERTEX
  5
86
330
D
100
AcDbEntity
  8
0
100
AcDbVertex
100
AcDbPolyFaceMeshVertex
 10
1722.247406456286
 20
2949.999999999955
 30
1688.62316236553
 70
   192
  0
VERTEX
  5
87
330
D
100
AcDbEntity
  8
0
100
AcDbVertex
100
AcDbPolyFaceMeshVertex
 10
1945.247406456286
 20
2949.99999999995
 30
1871.956495698864
 70
   192
  0
VERTEX
  5
88
330
D
100
AcDbEntity
  8
0
100
AcDbVertex
100
AcDbPolyFaceMeshVertex
 10
2168.247406456286
 20
2949.999999999945
 30
2055.289829032197
 70
   192
  0
VERTEX
  5
89
330
D
100
AcDbEntity
  8
0
100
AcDbVertex
100
AcDbPolyFaceMeshVertex
 10
2391.247406456286
 20
2949.999999999941
 30
2238.62316236553
 70
   192
  0
VERTEX
  5
8A
330
D
100
AcDbEntity
  8
0
100
AcDbVertex
100
AcDbPolyFaceMeshVertex
 10
2614.247406456286
 20
2949.999999999936
 30
2421.956495698864
 70
   192
  0
VERTEX
  5
8B
330
D
100
AcDbEntity
  8
0
100
AcDbVertex
100
AcDbPolyFaceMeshVertex
 10
2837.247406456286
 20
2949.999999999931
 30
2605.289829032197
 70
   192
  0
VERTEX
  5
8C
330
D
100
AcDbEntity
  8
0
100
AcDbVertex
100
AcDbPolyFaceMeshVertex
 10
3074.085778051764
 20
2949.999999999926
 30
2800.000000000078
 70
   192
  0
VERTEX
  5
8D
330
D
100
AcDbEntity
  8
0
100
AcDbVertex
100
AcDbPolyFaceMeshVertex
 10
3074.085778051764
 20
2949.999999999926
 30
2800.000000000078
 70
   192
  0
VERTEX
  5
8E
330
D
100
AcDbEntity
  8
0
100
AcDbVertex
100
AcDbPolyFaceMeshVertex
 10
3315.0
 20
2949.999999999926
 30
2800.000000000078
 70
   192
  0
VERTEX
  5
8F
330
D
100
AcDbEntity
  8
0
100
AcDbVertex
100
AcDbPolyFaceMeshVertex
 10
3315.0
 20
2949.999999999926
 30
2800.000000000078
 70
   192
  0
VERTEX
  5
90
330
D
100
AcDbEntity
  8
0
100
AcDbVertex
100
AcDbPolyFaceMeshVertex
 10
3315.0
 20
2949.99999999993
 30
2620.608011852324
 70
   192
  0
VERTEX
  5
91
330
D
100
AcDbEntity
  8
0
100
AcDbVertex
100
AcDbPolyFaceMeshVertex
 10
3315.0
 20
2949.99999999993
 30
2620.608011852324
 70
   192
  0
VERTEX
  5
92
330
D
100
AcDbEntity
  8
0
100
AcDbVertex
100
AcDbPolyFaceMeshVertex
 10
3153.753353542473
 20
2949.999999999934
 30
2488.043504301293
 70
   192
  0
VERTEX
  5
93
330
D
100
AcDbEntity
  8
0
100
AcDbVertex
100
AcDbPolyFaceMeshVertex
 10
2930.753353542473
 20
2949.999999999939
 30
2304.71017096796
 70
   192
  0
VERTEX
  5
94
330
D
100
AcDbEntity
  8
0
100
AcDbVertex
100
AcDbPolyFaceMeshVertex
 10
2707.753353542473
 20
2949.999999999944
 30
2121.376837634626
 70
   192
  0
VERTEX
  5
95
330
D
100
AcDbEntity
  8
0
100
AcDbVertex
100
AcDbPolyFaceMeshVertex
 10
2484.753353542473
 20
2949.999999999949
 30
1938.043504301293
 70
   192
  0
VERTEX
  5
96
330
D
100
AcDbEntity
  8
0
100
AcDbVertex
100
AcDbPolyFaceMeshVertex
 10
2261.753353542473
 20
2949.999999999954
 30
1754.71017096796
 70
   192
  0
VERTEX
  5
97
330
D
100
AcDbEntity
  8
0
100
AcDbVertex
100
AcDbPolyFaceMeshVertex
 10
2038.753353542473
 20
2949.999999999958
 30
1571.376837634626
 70
   192
  0
VERTEX
  5
98
330
D
100
AcDbEntity
  8
0
100
AcDbVertex
100
AcDbPolyFaceMeshVertex
 10
1815.753353542473
 20
2949.999999999963
 30
1388.043504301293
 70
   192
  0
VERTEX
  5
99
330
D
100
AcDbEntity
  8
0
100
AcDbVertex
100
AcDbPolyFaceMeshVertex
 10
1592.753353542473
 20
2949.999999999968
 30
1204.71017096796
 70
   192
  0
VERTEX
  5
9A
330
D
100
AcDbEntity
  8
0
100
AcDbVertex
100
AcDbPolyFaceMeshVertex
 10
1369.753353542473
 20
2949.999999999973
 30
1021.376837634626
 70
   192
  0
VERTEX
  5
9B
330
D
100
AcDbEntity
  8
0
100
AcDbVertex
100
AcDbPolyFaceMeshVertex
 10
1146.753353542473
 20
2949.999999999978
 30
838.0435043012926
 70
   192
  0
VERTEX
  5
9C
330
D
100
AcDbEntity
  8
0
100
AcDbVertex
100
AcDbPolyFaceMeshVertex
 10
923.7533535424728
 20
2949.999999999983
 30
654.7101709679592
 70
   192
  0
VERTEX
  5
9D
330
D
100
AcDbEntity
  8
0
100
AcDbVertex
100
AcDbPolyFaceMeshVertex
 10
700.7533535424728
 20
2949.999999999988
 30
471.3768376346259
 70
   192
  0
VERTEX
  5
9E
330
D
100
AcDbEntity
  8
0
100
AcDbVertex
100
AcDbPolyFaceMeshVertex
 10
477.7533535424728
 20
2949.999999999992
 30
288.0435043012926
 70
   192
  0
VERTEX
  5
9F
330
D
100
AcDbEntity
  8
0
100
AcDbVertex
100
AcDbPolyFaceMeshVertex
 10
127.3877092197228
 20
2950.0
 30
0.0000000000781294
 70
   192
  0
VERTEX
  5
A0
330
D
100
AcDbEntity
  8
0
100
AcDbVertex
100
AcDbPolyFaceMeshVertex
 10
127.3877092197228
 20
2950.0
 30
0.0000000000781294
 70
   192
  0
VERTEX
  5
A1
330
D
100
AcDbEntity
  8
0
100
AcDbVertex
100
AcDbPolyFaceMeshVertex
 10
-80.0
 20
2950.0
 30
0.0000000000781294
 70
   192
  0
VERTEX
  5
A2
330
D
100
AcDbEntity
  8
0
100
AcDbVertex
100
AcDbPolyFaceMeshVertex
 10
-80.0
 20
2950.0
 30
0.0000000000781294
 70
   192
  0
VERTEX
  5
A3
330
D
100
AcDbEntity
  8
0
100
AcDbVertex
100
AcDbPolyFaceMeshVertex
 10
-80.0
 20
2949.999999999995
 30
206.9548909889123
 70
   192
  0
VERTEX
  5
A4
330
D
100
AcDbEntity
  8
0
100
AcDbVertex
100
AcDbPolyFaceMeshVertex
 10
-80.0
 20
2934.999999999995
 30
206.9548909889119
 70
   192
  0
VERTEX
  5
A5
330
D
100
AcDbEntity
  8
0
100
AcDbVertex
100
AcDbPolyFaceMeshVertex
 10
161.2474064562863
 20
2934.999999999989
 30
405.2898290321966
 70
   192
  0
VERTEX
  5
A6
330
D
100
AcDbEntity
  8
0
100
AcDbVertex
100
AcDbPolyFaceMeshVertex
 10
384.2474064562863
 20
2934.999999999985
 30
588.62316236553
 70
   192
  0
VERTEX
  5
A7
330
D
100
AcDbEntity
  8
0
100
AcDbVertex
100
AcDbPolyFaceMeshVertex
 10
607.2474064562863
 20
2934.99999999998
 30
771.9564956988634
 70
   192
  0
VERTEX
  5
A8
330
D
100
AcDbEntity
  8
0
100
AcDbVertex
100
AcDbPolyFaceMeshVertex
 10
830.2474064562863
 20
2934.999999999975
 30
955.2898290321967
 70
   192
  0
VERTEX
  5
A9
330
D
100
AcDbEntity
  8
0
100
AcDbVertex
100
AcDbPolyFaceMeshVertex
 10
1053.247406456286
 20
2934.99999999997
 30
1138.62316236553
 70
   192
  0
VERTEX
  5
AA
330
D
100
AcDbEntity
  8
0
100
AcDbVertex
100
AcDbPolyFaceMeshVertex
 10
1276.247406456286
 20
2934.999999999965
 30
1321.956495698863
 70
   192
  0
VERTEX
  5
AB
330
D
100
AcDbEntity
  8
0
100
AcDbVertex
100
AcDbPolyFaceMeshVertex
 10
1499.247406456286
 20
2934.99999999996
 30
1505.289829032197
 70
   192
  0
VERTEX
  5
AC
330
D
100
AcDbEntity
  8
0
100
AcDbVertex
100
AcDbPolyFaceMeshVertex
 10
1722.247406456286
 20
2934.999999999955
 30
1688.62316236553
 70
   192
  0
VERTEX
  5
AD
330
D
100
AcDbEntity
  8
0
100
AcDbVertex
100
AcDbPolyFaceMeshVertex
 10
1945.247406456286
 20
2934.99999999995
 30
1871.956495698863
 70
   192
  0
VERTEX
  5
AE
330
D
100
AcDbEntity
  8
0
100
AcDbVertex
100
AcDbPolyFaceMeshVertex
 10
2168.247406456286
 20
2934.999999999945
 30
2055.289829032197
 70
   192
  0
VERTEX
  5
AF
330
D
100
AcDbEntity
  8
0
100
AcDbVertex
100
AcDbPolyFaceMeshVertex
 10
2391.247406456286
 20
2934.999999999941
 30
2238.62316236553
 70
   192
  0
VERTEX
  5
B0
330
D
100
AcDbEntity
  8
0
100
AcDbVertex
100
AcDbPolyFaceMeshVertex
 10
2614.247406456286
 20
2934.999999999936
 30
2421.956495698863
 70
   192
  0
VERTEX
  5
B1
330
D
100
AcDbEntity
  8
0
100
AcDbVertex
100
AcDbPolyFaceMeshVertex
 10
2837.247406456286
 20
2934.999999999931
 30
2605.289829032197
 70
   192
  0
VERTEX
  5
B2
330
D
100
AcDbEntity
  8
0
100
AcDbVertex
100
AcDbPolyFaceMeshVertex
 10
3074.085778051764
 20
2934.999999999926
 30
2800.000000000078
 70
   192
  0
VERTEX
  5
B3
330
D
100
AcDbEntity
  8
0
100
AcDbVertex
100
AcDbPolyFaceMeshVertex
 10
3074.085778051764
 20
2934.999999999926
 30
2800.000000000078
 70
   192
  0
VERTEX
  5
B4
330
D
100
AcDbEntity
  8
0
100
AcDbVertex
100
AcDbPolyFaceMeshVertex
 10
3315.0
 20
2934.999999999926
 30
2800.000000000078
 70
   192
  0
VERTEX
  5
B5
330
D
100
AcDbEntity
  8
0
100
AcDbVertex
100
AcDbPolyFaceMeshVertex
 10
3315.0
 20
2934.999999999926
 30
2800.000000000078
 70
   192
  0
VERTEX
  5
B6
330
D
100
AcDbEntity
  8
0
100
AcDbVertex
100
AcDbPolyFaceMeshVertex
 10
3315.0
 20
2934.99999999993
 30
2620.608011852324
 70
   192
  0
VERTEX
  5
B7
330
D
100
AcDbEntity
  8
0
100
AcDbVertex
100
AcDbPolyFaceMeshVertex
 10
3315.0
 20
2934.99999999993
 30
2620.608011852324
 70
   192
  0
VERTEX
  5
B8
330
D
100
AcDbEntity
  8
0
100
AcDbVertex
100
AcDbPolyFaceMeshVertex
 10
3153.753353542473
 20
2934.999999999934
 30
2488.043504301293
 70
   192
  0
VERTEX
  5
B9
330
D
100
AcDbEntity
  8
0
100
AcDbVertex
100
AcDbPolyFaceMeshVertex
 10
2930.753353542473
 20
2934.999999999939
 30
2304.710170967959
 70
   192
  0
VERTEX
  5
BA
330
D
100
AcDbEntity
  8
0
100
AcDbVertex
100
AcDbPolyFaceMeshVertex
 10
2707.753353542473
 20
2934.999999999944
 30
2121.376837634626
 70
   192
  0
VERTEX
  5
BB
330
D
100
AcDbEntity
  8
0
100
AcDbVertex
100
AcDbPolyFaceMeshVertex
 10
2484.753353542473
 20
2934.999999999949
 30
1938.043504301292
 70
   192
  0
VERTEX
  5
BC
330
D
100
AcDbEntity
  8
0
100
AcDbVertex
100
AcDbPolyFaceMeshVertex
 10
2261.753353542473
 20
2934.999999999954
 30
1754.710170967959
 70
   192
  0
VERTEX
  5
BD
330
D
100
AcDbEntity
  8
0
100
AcDbVertex
100
AcDbPolyFaceMeshVertex
 10
2038.753353542473
 20
2934.999999999958
 30
1571.376837634626
 70
   192
  0
VERTEX
  5
BE
330
D
100
AcDbEntity
  8
0
100
AcDbVertex
100
AcDbPolyFaceMeshVertex
 10
1815.753353542473
 20
2934.999999999963
 30
1388.043504301292
 70
   192
  0
VERTEX
  5
BF
330
D
100
AcDbEntity
  8
0
100
AcDbVertex
100
AcDbPolyFaceMeshVertex
 10
1592.753353542473
 20
2934.999999999968
 30
1204.710170967959
 70
   192
  0
VERTEX
  5
C0
330
D
100
AcDbEntity
  8
0
100
AcDbVertex
100
AcDbPolyFaceMeshVertex
 10
1369.753353542473
 20
2934.999999999973
 30
1021.376837634626
 70
   192
  0
VERTEX
  5
C1
330
D
100
AcDbEntity
  8
0
100
AcDbVertex
100
AcDbPolyFaceMeshVertex
 10
1146.753353542473
 20
2934.999999999978
 30
838.0435043012923
 70
   192
  0
VERTEX
  5
C2
330
D
100
AcDbEntity
  8
0
100
AcDbVertex
100
AcDbPolyFaceMeshVertex
 10
923.7533535424728
 20
2934.999999999983
 30
654.7101709679589
 70
   192
  0
VERTEX
  5
C3
330
D
100
AcDbEntity
  8
0
100
AcDbVertex
100
AcDbPolyFaceMeshVertex
 10
700.7533535424728
 20
2934.999999999988
 30
471.3768376346255
 70
   192
  0
VERTEX
  5
C4
330
D
100
AcDbEntity
  8
0
100
AcDbVertex
100
AcDbPolyFaceMeshVertex
 10
477.7533535424728
 20
2934.999999999992
 30
288.0435043012922
 70
   192
  0
VERTEX
  5
C5
330
D
100
AcDbEntity
  8
0
100
AcDbVertex
100
AcDbPolyFaceMeshVertex
 10
127.3877092197228
 20
2935.0
 30
0.0000000000777321
 70
   192
  0
VERTEX
  5
C6
330
D
100
AcDbEntity
  8
0
100
AcDbVertex
100
AcDbPolyFaceMeshVertex
 10
127.3877092197228
 20
2935.0
 30
0.0000000000777321
 70
   192
  0
VERTEX
  5
C7
330
D
100
AcDbEntity
  8
0
100
AcDbVertex
100
AcDbPolyFaceMeshVertex
 10
-80.0
 20
2935.0
 30
0.0000000000777321
 70
   192
  0
VERTEX
  5
C8
330
D
100
AcDbEntity
  8
0
100
AcDbVertex
100
AcDbPolyFaceMeshVertex
 10
-80.0
 20
2935.0
 30
0.0000000000777321
 70
   192
  0
VERTEX
  5
C9
330
D
100
AcDbEntity
  8
0
100
AcDbVertex
100
AcDbPolyFaceMeshVertex
 10
-80.0
 20
2934.999999999995
 30
206.9548909889119
 70
   192
  0
VERTEX
  5
CA
330
D
100
AcDbEntity
  8
0
 62
     0
100
AcDbFaceRecord
 10
0.0
 20
0.0
 30
0.0
 70
   128
 71
   -38
 72
   -16
 73
   -17
 74
   -17
  0
VERTEX
  5
CB
330
D
100
AcDbEntity
  8
0
 62
     0
100
AcDbFaceRecord
 10
0.0
 20
0.0
 30
0.0
 70
   128
 71
   -76
 72
   -54
 73
   -55
 74
   -55
  0
VERTEX
  5
CC
330
D
100
AcDbEntity
  8
0
 62
     0
100
AcDbFaceRecord
 10
0.0
 20
0.0
 30
0.0
 70
   128
 71
   -38
 72
   -18
 73
   -19
 74
   -19
  0
VERTEX
  5
CD
330
D
100
AcDbEntity
  8
0
 62
     0
100
AcDbFaceRecord
 10
0.0
 20
0.0
 30
0.0
 70
   128
 71
   -76
 72
   -56
 73
   -57
 74
   -57
  0
VERTEX
  5
CE
330
D
100
AcDbEntity
  8
0
 62
     0
100
AcDbFaceRecord
 10
0.0
 20
0.0
 30
0.0
 70
   128
 71
   -38
 72
   -20
 73
   -21
 74
   -21
  0
VERTEX
  5
CF
330
D
100
AcDbEntity
  8
0
 62
     0
100
AcDbFaceRecord
 10
0.0
 20
0.0
 30
0.0
 70
   128
 71
   -76
 72
   -58
 73
   -59
 74
   -59
  0
VERTEX
  5
D0
330
D
100
AcDbEntity
  8
0
 62
     0
100
AcDbFaceRecord
 10
0.0
 20
0.0
 30
0.0
 70
   128
 71
   -38
 72
   -21
 73
   -22
 74
   -22
  0
VERTEX
  5
D1
330
D
100
AcDbEntity
  8
0
 62
     0
100
AcDbFaceRecord
 10
0.0
 20
0.0
 30
0.0
 70
   128
 71
   -76
 72
   -59
 73
   -60
 74
   -60
  0
VERTEX
  5
D2
330
D
100
AcDbEntity
  8
0
 62
     0
100
AcDbFaceRecord
 10
0.0
 20
0.0
 30
0.0
 70
   128
 71
   -38
 72
   -22
 73
   -23
 74
   -23
  0
VERTEX
  5
D3
330
D
100
AcDbEntity
  8
0
 62
     0
100
AcDbFaceRecord
 10
0.0
 20
0.0
 30
0.0
 70
   128
 71
   -76
 72
   -60
 73
   -61
 74
   -61
  0
VERTEX
  5
D4
330
D
100
AcDbEntity
  8
0
 62
     0
100
AcDbFaceRecord
 10
0.0
 20
0.0
 30
0.0
 70
   128
 71
   -38
 72
   -23
 73
   -24
 74
   -24
  0
VERTEX
  5
D5
330
D
100
AcDbEntity
  8
0
 62
     0
100
AcDbFaceRecord
 10
0.0
 20
0.0
 30
0.0
 70
   128
 71
   -76
 72
   -61
 73
   -62
 74
   -62
  0
VERTEX
  5
D6
330
D
100
AcDbEntity
  8
0
 62
     0
100
AcDbFaceRecord
 10
0.0
 20
0.0
 30
0.0
 70
   128
 71
   -38
 72
   -24
 73
   -25
 74
   -25
  0
VERTEX
  5
D7
330
D
100
AcDbEntity
  8
0
 62
     0
100
AcDbFaceRecord
 10
0.0
 20
0.0
 30
0.0
 70
   128
 71
   -76
 72
   -62
 73
   -63
 74
   -63
  0
VERTEX
  5
D8
330
D
100
AcDbEntity
  8
0
 62
     0
100
AcDbFaceRecord
 10
0.0
 20
0.0
 30
0.0
 70
   128
 71
   -38
 72
   -25
 73
   -26
 74
   -26
  0
VERTEX
  5
D9
330
D
100
AcDbEntity
  8
0
 62
     0
100
AcDbFaceRecord
 10
0.0
 20
0.0
 30
0.0
 70
   128
 71
   -76
 72
   -63
 73
   -64
 74
   -64
  0
VERTEX
  5
DA
330
D
100
AcDbEntity
  8
0
 62
     0
100
AcDbFaceRecord
 10
0.0
 20
0.0
 30
0.0
 70
   128
 71
   -38
 72
   -26
 73
   -27
 74
   -27
  0
VERTEX
  5
DB
330
D
100
AcDbEntity
  8
0
 62
     0
100
AcDbFaceRecord
 10
0.0
 20
0.0
 30
0.0
 70
   128
 71
   -76
 72
   -64
 73
   -65
 74
   -65
  0
VERTEX
  5
DC
330
D
100
AcDbEntity
  8
0
 62
     0
100
AcDbFaceRecord
 10
0.0
 20
0.0
 30
0.0
 70
   128
 71
   -38
 72
   -27
 73
   -28
 74
   -28
  0
VERTEX
  5
DD
330
D
100
AcDbEntity
  8
0
 62
     0
100
AcDbFaceRecord
 10
0.0
 20
0.0
 30
0.0
 70
   128
 71
   -76
 72
   -65
 73
   -66
 74
   -66
  0
VERTEX
  5
DE
330
D
100
AcDbEntity
  8
0
 62
     0
100
AcDbFaceRecord
 10
0.0
 20
0.0
 30
0.0
 70
   128
 71
   -38
 72
   -28
 73
   -29
 74
   -29
  0
VERTEX
  5
DF
330
D
100
AcDbEntity
  8
0
 62
     0
100
AcDbFaceRecord
 10
0.0
 20
0.0
 30
0.0
 70
   128
 71
   -76
 72
   -66
 73
   -67
 74
   -67
  0
VERTEX
  5
E0
330
D
100
AcDbEntity
  8
0
 62
     0
100
AcDbFaceRecord
 10
0.0
 20
0.0
 30
0.0
 70
   128
 71
   -38
 72
   -29
 73
   -30
 74
   -30
  0
VERTEX
  5
E1
330
D
100
AcDbEntity
  8
0
 62
     0
100
AcDbFaceRecord
 10
0.0
 20
0.0
 30
0.0
 70
   128
 71
   -76
 72
   -67
 73
   -68
 74
   -68
  0
VERTEX
  5
E2
330
D
100
AcDbEntity
  8
0
 62
     0
100
AcDbFaceRecord
 10
0.0
 20
0.0
 30
0.0
 70
   128
 71
   -38
 72
   -30
 73
   -31
 74
   -31
  0
VERTEX
  5
E3
330
D
100
AcDbEntity
  8
0
 62
     0
100
AcDbFaceRecord
 10
0.0
 20
0.0
 30
0.0
 70
   128
 71
   -76
 72
   -68
 73
   -69
 74
   -69
  0
VERTEX
  5
E4
330
D
100
AcDbEntity
  8
0
 62
     0
100
AcDbFaceRecord
 10
0.0
 20
0.0
 30
0.0
 70
   128
 71
   -38
 72
   -31
 73
   -32
 74
   -32
  0
VERTEX
  5
E5
330
D
100
AcDbEntity
  8
0
 62
     0
100
AcDbFaceRecord
 10
0.0
 20
0.0
 30
0.0
 70
   128
 71
   -76
 72
   -69
 73
   -70
 74
   -70
  0
VERTEX
  5
E6
330
D
100
AcDbEntity
  8
0
 62
     0
100
AcDbFaceRecord
 10
0.0
 20
0.0
 30
0.0
 70
   128
 71
   -38
 72
   -32
 73
   -33
 74
   -33
  0
VERTEX
  5
E7
330
D
100
AcDbEntity
  8
0
 62
     0
100
AcDbFaceRecord
 10
0.0
 20
0.0
 30
0.0
 70
   128
 71
   -76
 72
   -70
 73
   -71
 74
   -71
  0
VERTEX
  5
E8
330
D
100
AcDbEntity
  8
0
 62
     0
100
AcDbFaceRecord
 10
0.0
 20
0.0
 30
0.0
 70
   128
 71
   -38
 72
   -33
 73
   -34
 74
   -34
  0
VERTEX
  5
E9
330
D
100
AcDbEntity
  8
0
 62
     0
100
AcDbFaceRecord
 10
0.0
 20
0.0
 30
0.0
 70
   128
 71
   -76
 72
   -71
 73
   -72
 74
   -72
  0
VERTEX
  5
EA
330
D
100
AcDbEntity
  8
0
 62
     0
100
AcDbFaceRecord
 10
0.0
 20
0.0
 30
0.0
 70
   128
 71
   -37
 72
   -38
 73
   -35
 74
   -35
  0
VERTEX
  5
EB
330
D
100
AcDbEntity
  8
0
 62
     0
100
AcDbFaceRecord
 10
0.0
 20
0.0
 30
0.0
 70
   128
 71
   -75
 72
   -76
 73
   -73
 74
   -73
  0
VERTEX
  5
EC
330
D
100
AcDbEntity
  8
0
 62
     0
100
AcDbFaceRecord
 10
0.0
 20
0.0
 30
0.0
 70
   128
 71
     1
 72
     2
 73
    40
 74
    39
  0
VERTEX
  5
ED
330
D
100
AcDbEntity
  8
0
 62
     0
100
AcDbFaceRecord
 10
0.0
 20
0.0
 30
0.0
 70
   128
 71
     2
 72
     3
 73
    41
 74
    40
  0
VERTEX
  5
EE
330
D
100
AcDbEntity
  8
0
 62
     0
100
AcDbFaceRecord
 10
0.0
 20
0.0
 30
0.0
 70
   128
 71
     3
 72
     4
 73
    42
 74
    41
  0
VERTEX
  5
EF
330
D
100
AcDbEntity
  8
0
 62
     0
100
AcDbFaceRecord
 10
0.0
 20
0.0
 30
0.0
 70
   128
 71
     4
 72
     5
 73
    43
 74
    42
  0
VERTEX
  5
F0
330
D
100
AcDbEntity
  8
0
 62
     0
100
AcDbFaceRecord
 10
0.0
 20
0.0
 30
0.0
 70
   128
 71
     5
 72
     6
 73
    44
 74
    43
  0
VERTEX
  5
F1
330
D
100
AcDbEntity
  8
0
 62
     0
100
AcDbFaceRecord
 10
0.0
 20
0.0
 30
0.0
 70
   128
 71
     6
 72
     7
 73
    45
 74
    44
  0
VERTEX
  5
F2
330
D
100
AcDbEntity
  8
0
 62
     0
100
AcDbFaceRecord
 10
0.0
 20
0.0
 30
0.0
 70
   128
 71
     7
 72
     8
 73
    46
 74
    45
  0
VERTEX
  5
F3
330
D
100
AcDbEntity
  8
0
 62
     0
100
AcDbFaceRecord
 10
0.0
 20
0.0
 30
0.0
 70
   128
 71
     8
 72
     9
 73
    47
 74
    46
  0
VERTEX
  5
F4
330
D
100
AcDbEntity
  8
0
 62
     0
100
AcDbFaceRecord
 10
0.0
 20
0.0
 30
0.0
 70
   128
 71
     9
 72
    10
 73
    48
 74
    47
  0
VERTEX
  5
F5
330
D
100
AcDbEntity
  8
0
 62
     0
100
AcDbFaceRecord
 10
0.0
 20
0.0
 30
0.0
 70
   128
 71
    10
 72
    11
 73
    49
 74
    48
  0
VERTEX
  5
F6
330
D
100
AcDbEntity
  8
0
 62
     0
100
AcDbFaceRecord
 10
0.0
 20
0.0
 30
0.0
 70
   128
 71
    11
 72
    12
 73
    50
 74
    49
  0
VERTEX
  5
F7
330
D
100
AcDbEntity
  8
0
 62
     0
100
AcDbFaceRecord
 10
0.0
 20
0.0
 30
0.0
 70
   128
 71
    12
 72
    13
 73
    51
 74
    50
  0
VERTEX
  5
F8
330
D
100
AcDbEntity
  8
0
 62
     0
100
AcDbFaceRecord
 10
0.0
 20
0.0
 30
0.0
 70
   128
 71
    13
 72
    14
 73
    52
 74
    51
  0
VERTEX
  5
F9
330
D
100
AcDbEntity
  8
0
 62
     0
100
AcDbFaceRecord
 10
0.0
 20
0.0
 30
0.0
 70
   128
 71
    14
 72
    15
 73
    53
 74
    52
  0
VERTEX
  5
FA
330
D
100
AcDbEntity
  8
0
 62
     0
100
AcDbFaceRecord
 10
0.0
 20
0.0
 30
0.0
 70
   128
 71
    15
 72
    16
 73
    54
 74
    53
  0
VERTEX
  5
FB
330
D
100
AcDbEntity
  8
0
 62
     0
100
AcDbFaceRecord
 10
0.0
 20
0.0
 30
0.0
 70
   128
 71
    16
 72
    17
 73
    55
 74
    54
  0
VERTEX
  5
FC
330
D
100
AcDbEntity
  8
0
 62
     0
100
AcDbFaceRecord
 10
0.0
 20
0.0
 30
0.0
 70
   128
 71
    17
 72
    18
 73
    56
 74
    55
  0
VERTEX
  5
FD
330
D
100
AcDbEntity
  8
0
 62
     0
100
AcDbFaceRecord
 10
0.0
 20
0.0
 30
0.0
 70
   128
 71
    18
 72
    19
 73
    57
 74
    56
  0
VERTEX
  5
FE
330
D
100
AcDbEntity
  8
0
 62
     0
100
AcDbFaceRecord
 10
0.0
 20
0.0
 30
0.0
 70
   128
 71
    19
 72
    20
 73
    58
 74
    57
  0
VERTEX
  5
FF
330
D
100
AcDbEntity
  8
0
 62
     0
100
AcDbFaceRecord
 10
0.0
 20
0.0
 30
0.0
 70
   128
 71
    20
 72
    21
 73
    59
 74
    58
  0
VERTEX
  5
100
330
D
100
AcDbEntity
  8
0
 62
     0
100
AcDbFaceRecord
 10
0.0
 20
0.0
 30
0.0
 70
   128
 71
    21
 72
    22
 73
    60
 74
    59
  0
VERTEX
  5
101
330
D
100
AcDbEntity
  8
0
 62
     0
100
AcDbFaceRecord
 10
0.0
 20
0.0
 30
0.0
 70
   128
 71
    22
 72
    23
 73
    61
 74
    60
  0
VERTEX
  5
102
330
D
100
AcDbEntity
  8
0
 62
     0
100
AcDbFaceRecord
 10
0.0
 20
0.0
 30
0.0
 70
   128
 71
    23
 72
    24
 73
    62
 74
    61
  0
VERTEX
  5
103
330
D
100
AcDbEntity
  8
0
 62
     0
100
AcDbFaceRecord
 10
0.0
 20
0.0
 30
0.0
 70
   128
 71
    24
 72
    25
 73
    63
 74
    62
  0
VERTEX
  5
104
330
D
100
AcDbEntity
  8
0
 62
     0
100
AcDbFaceRecord
 10
0.0
 20
0.0
 30
0.0
 70
   128
 71
    25
 72
    26
 73
    64
 74
    63
  0
VERTEX
  5
105
330
D
100
AcDbEntity
  8
0
 62
     0
100
AcDbFaceRecord
 10
0.0
 20
0.0
 30
0.0
 70
   128
 71
    26
 72
    27
 73
    65
 74
    64
  0
VERTEX
  5
106
330
D
100
AcDbEntity
  8
0
 62
     0
100
AcDbFaceRecord
 10
0.0
 20
0.0
 30
0.0
 70
   128
 71
    27
 72
    28
 73
    66
 74
    65
  0
VERTEX
  5
107
330
D
100
AcDbEntity
  8
0
 62
     0
100
AcDbFaceRecord
 10
0.0
 20
0.0
 30
0.0
 70
   128
 71
    28
 72
    29
 73
    67
 74
    66
  0
VERTEX
  5
108
330
D
100
AcDbEntity
  8
0
 62
     0
100
AcDbFaceRecord
 10
0.0
 20
0.0
 30
0.0
 70
   128
 71
    29
 72
    30
 73
    68
 74
    67
  0
VERTEX
  5
109
330
D
100
AcDbEntity
  8
0
 62
     0
100
AcDbFaceRecord
 10
0.0
 20
0.0
 30
0.0
 70
   128
 71
    30
 72
    31
 73
    69
 74
    68
  0
VERTEX
  5
10A
330
D
100
AcDbEntity
  8
0
 62
     0
100
AcDbFaceRecord
 10
0.0
 20
0.0
 30
0.0
 70
   128
 71
    31
 72
    32
 73
    70
 74
    69
  0
VERTEX
  5
10B
330
D
100
AcDbEntity
  8
0
 62
     0
100
AcDbFaceRecord
 10
0.0
 20
0.0
 30
0.0
 70
   128
 71
    32
 72
    33
 73
    71
 74
    70
  0
VERTEX
  5
10C
330
D
100
AcDbEntity
  8
0
 62
     0
100
AcDbFaceRecord
 10
0.0
 20
0.0
 30
0.0
 70
   128
 71
    33
 72
    34
 73
    72
 74
    71
  0
VERTEX
  5
10D
330
D
100
AcDbEntity
  8
0
 62
     0
100
AcDbFaceRecord
 10
0.0
 20
0.0
 30
0.0
 70
   128
 71
    34
 72
    35
 73
    73
 74
    72
  0
VERTEX
  5
10E
330
D
100
AcDbEntity
  8
0
 62
     0
100
AcDbFaceRecord
 10
0.0
 20
0.0
 30
0.0
 70
   128
 71
    35
 72
    36
 73
    74
 74
    73
  0
VERTEX
  5
10F
330
D
100
AcDbEntity
  8
0
 62
     0
100
AcDbFaceRecord
 10
0.0
 20
0.0
 30
0.0
 70
   128
 71
    36
 72
    37
 73
    75
 74
    74
  0
VERTEX
  5
110
330
D
100
AcDbEntity
  8
0
 62
     0
100
AcDbFaceRecord
 10
0.0
 20
0.0
 30
0.0
 70
   128
 71
    37
 72
    38
 73
    76
 74
    75
  0
SEQEND
  5
7D
330
D
100
AcDbEntity
  8
HOLME
  0
LWPOLYLINE
  5
E
330
4E
100
AcDbEntity
  8
HOLME
100
AcDbPolyline
 90
       38
 70
     0
 43
0.0
 38
2144.999999999995
 10
80.0
 20
206.954890988891
 10
-161.2474064562863
 20
405.2898290321757
 10
-384.2474064562863
 20
588.6231623655091
 10
-607.2474064562863
 20
771.9564956988425
 10
-830.2474064562863
 20
955.2898290321758
 10
-1053.247406456286
 20
1138.623162365509
 10
-1276.247406456286
 20
1321.956495698842
 10
-1499.247406456286
 20
1505.289829032176
 10
-1722.247406456286
 20
1688.623162365509
 10
-1945.247406456286
 20
1871.956495698842
 10
-2168.247406456286
 20
2055.289829032176
 10
-2391.247406456286
 20
2238.623162365509
 10
-2614.247406456286
 20
2421.956495698842
 10
-2837.247406456286
 20
2605.289829032176
 10
-3074.085778051764
 20
2800.000000000057
 10
-3074.085778051764
 20
2800.000000000057
 10
-3315.0
 20
2800.000000000057
 10
-3315.0
 20
2800.000000000057
 10
-3315.0
 20
2620.608011852303
 10
-3315.0
 20
2620.608011852303
 10
-3153.753353542473
 20
2488.043504301272
 10
-2930.753353542473
 20
2304.710170967938
 10
-2707.753353542473
 20
2121.376837634605
 10
-2484.753353542473
 20
1938.043504301272
 10
-2261.753353542473
 20
1754.710170967938
 10
-2038.753353542473
 20
1571.376837634605
 10
-1815.753353542473
 20
1388.043504301272
 10
-1592.753353542473
 20
1204.710170967938
 10
-1369.753353542473
 20
1021.376837634605
 10
-1146.753353542473
 20
838.0435043012714
 10
-923.7533535424728
 20
654.710170967938
 10
-700.7533535424728
 20
471.3768376346046
 10
-477.7533535424728
 20
288.0435043012713
 10
-127.3877092197228
 20
0.0000000000568093
 10
-127.3877092197228
 20
0.0000000000568093
 10
80.0
 20
0.0000000000568093
 10
80.0
 20
0.0000000000568093
 10
80.0
 20
206.954890988891
210
0.0
220
1.0
230
0.0
  0
POLYLINE
  5
F
330
4E
100
AcDbEntity
  8
HOLME
100
AcDbPolyFaceMesh
 66
     1
 10
0.0
 20
0.0
 30
0.0
 70
    64
 71
    76
 72
    71
  0
VERTEX
  5
112
330
F
100
AcDbEntity
  8
0
100
AcDbVertex
100
AcDbPolyFaceMeshVertex
 10
-80.0
 20
2144.999999999995
 30
206.954890988891
 70
   192
  0
VERTEX
  5
113
330
F
100
AcDbEntity
  8
0
100
AcDbVertex
100
AcDbPolyFaceMeshVertex
 10
161.2474064562863
 20
2144.999999999989
 30
405.2898290321757
 70
   192
  0
VERTEX
  5
114
330
F
100
AcDbEntity
  8
0
100
AcDbVertex
100
AcDbPolyFaceMeshVertex
 10
384.2474064562863
 20
2144.999999999985
 30
588.6231623655091
 70
   192
  0
VERTEX
  5
115
330
F
100
AcDbEntity
  8
0
100
AcDbVertex
100
AcDbPolyFaceMeshVertex
 10
607.2474064562863
 20
2144.99999999998
 30
771.9564956988425
 70
   192
  0
VERTEX
  5
116
330
F
100
AcDbEntity
  8
0
100
AcDbVertex
100
AcDbPolyFaceMeshVertex
 10
830.2474064562863
 20
2144.999999999975
 30
955.2898290321758
 70
   192
  0
VERTEX
  5
117
330
F
100
AcDbEntity
  8
0
100
AcDbVertex
100
AcDbPolyFaceMeshVertex
 10
1053.247406456286
 20
2144.99999999997
 30
1138.623162365509
 70
   192
  0
VERTEX
  5
118
330
F
100
AcDbEntity
  8
0
100
AcDbVertex
100
AcDbPolyFaceMeshVertex
 10
1276.247406456286
 20
2144.999999999965
 30
1321.956495698842
 70
   192
  0
VERTEX
  5
119
330
F
100
AcDbEntity
  8
0
100
AcDbVertex
100
AcDbPolyFaceMeshVertex
 10
1499.247406456286
 20
2144.99999999996
 30
1505.289829032176
 70
   192
  0
VERTEX
  5
11A
330
F
100
AcDbEntity
  8
0
100
AcDbVertex
100
AcDbPolyFaceMeshVertex
 10
1722.247406456286
 20
2144.999999999955
 30
1688.623162365509
 70
   192
  0
VERTEX
  5
11B
330
F
100
AcDbEntity
  8
0
100
AcDbVertex
100
AcDbPolyFaceMeshVertex
 10
1945.247406456286
 20
2144.99999999995
 30
1871.956495698842
 70
   192
  0
VERTEX
  5
11C
330
F
100
AcDbEntity
  8
0
100
AcDbVertex
100
AcDbPolyFaceMeshVertex
 10
2168.247406456286
 20
2144.999999999945
 30
2055.289829032176
 70
   192
  0
VERTEX
  5
11D
330
F
100
AcDbEntity
  8
0
100
AcDbVertex
100
AcDbPolyFaceMeshVertex
 10
2391.247406456286
 20
2144.999999999941
 30
2238.623162365509
 70
   192
  0
VERTEX
  5
11E
330
F
100
AcDbEntity
  8
0
100
AcDbVertex
100
AcDbPolyFaceMeshVertex
 10
2614.247406456286
 20
2144.999999999936
 30
2421.956495698842
 70
   192
  0
VERTEX
  5
11F
330
F
100
AcDbEntity
  8
0
100
AcDbVertex
100
AcDbPolyFaceMeshVertex
 10
2837.247406456286
 20
2144.999999999931
 30
2605.289829032176
 70
   192
  0
VERTEX
  5
120
330
F
100
AcDbEntity
  8
0
100
AcDbVertex
100
AcDbPolyFaceMeshVertex
 10
3074.085778051764
 20
2144.999999999926
 30
2800.000000000057
 70
   192
  0
VERTEX
  5
121
330
F
100
AcDbEntity
  8
0
100
AcDbVertex
100
AcDbPolyFaceMeshVertex
 10
3074.085778051764
 20
2144.999999999926
 30
2800.000000000057
 70
   192
  0
VERTEX
  5
122
330
F
100
AcDbEntity
  8
0
100
AcDbVertex
100
AcDbPolyFaceMeshVertex
 10
3315.0
 20
2144.999999999926
 30
2800.000000000057
 70
   192
  0
VERTEX
  5
123
330
F
100
AcDbEntity
  8
0
100
AcDbVertex
100
AcDbPolyFaceMeshVertex
 10
3315.0
 20
2144.999999999926
 30
2800.000000000057
 70
   192
  0
VERTEX
  5
124
330
F
100
AcDbEntity
  8
0
100
AcDbVertex
100
AcDbPolyFaceMeshVertex
 10
3315.0
 20
2144.99999999993
 30
2620.608011852303
 70
   192
  0
VERTEX
  5
125
330
F
100
AcDbEntity
  8
0
100
AcDbVertex
100
AcDbPolyFaceMeshVertex
 10
3315.0
 20
2144.99999999993
 30
2620.608011852303
 70
   192
  0
VERTEX
  5
126
330
F
100
AcDbEntity
  8
0
100
AcDbVertex
100
AcDbPolyFaceMeshVertex
 10
3153.753353542473
 20
2144.999999999934
 30
2488.043504301272
 70
   192
  0
VERTEX
  5
127
330
F
100
AcDbEntity
  8
0
100
AcDbVertex
100
AcDbPolyFaceMeshVertex
 10
2930.753353542473
 20
2144.999999999939
 30
2304.710170967938
 70
   192
  0
VERTEX
  5
128
330
F
100
AcDbEntity
  8
0
100
AcDbVertex
100
AcDbPolyFaceMeshVertex
 10
2707.753353542473
 20
2144.999999999944
 30
2121.376837634605
 70
   192
  0
VERTEX
  5
129
330
F
100
AcDbEntity
  8
0
100
AcDbVertex
100
AcDbPolyFaceMeshVertex
 10
2484.753353542473
 20
2144.999999999949
 30
1938.043504301272
 70
   192
  0
VERTEX
  5
12A
330
F
100
AcDbEntity
  8
0
100
AcDbVertex
100
AcDbPolyFaceMeshVertex
 10
2261.753353542473
 20
2144.999999999954
 30
1754.710170967938
 70
   192
  0
VERTEX
  5
12B
330
F
100
AcDbEntity
  8
0
100
AcDbVertex
100
AcDbPolyFaceMeshVertex
 10
2038.753353542473
 20
2144.999999999958
 30
1571.376837634605
 70
   192
  0
VERTEX
  5
12C
330
F
100
AcDbEntity
  8
0
100
AcDbVertex
100
AcDbPolyFaceMeshVertex
 10
1815.753353542473
 20
2144.999999999963
 30
1388.043504301272
 70
   192
  0
VERTEX
  5
12D
330
F
100
AcDbEntity
  8
0
100
AcDbVertex
100
AcDbPolyFaceMeshVertex
 10
1592.753353542473
 20
2144.999999999968
 30
1204.710170967938
 70
   192
  0
VERTEX
  5
12E
330
F
100
AcDbEntity
  8
0
100
AcDbVertex
100
AcDbPolyFaceMeshVertex
 10
1369.753353542473
 20
2144.999999999973
 30
1021.376837634605
 70
   192
  0
VERTEX
  5
12F
330
F
100
AcDbEntity
  8
0
100
AcDbVertex
100
AcDbPolyFaceMeshVertex
 10
1146.753353542473
 20
2144.999999999978
 30
838.0435043012714
 70
   192
  0
VERTEX
  5
130
330
F
100
AcDbEntity
  8
0
100
AcDbVertex
100
AcDbPolyFaceMeshVertex
 10
923.7533535424728
 20
2144.999999999983
 30
654.710170967938
 70
   192
  0
VERTEX
  5
131
330
F
100
AcDbEntity
  8
0
100
AcDbVertex
100
AcDbPolyFaceMeshVertex
 10
700.7533535424728
 20
2144.999999999988
 30
471.3768376346046
 70
   192
  0
VERTEX
  5
132
330
F
100
AcDbEntity
  8
0
100
AcDbVertex
100
AcDbPolyFaceMeshVertex
 10
477.7533535424728
 20
2144.999999999992
 30
288.0435043012713
 70
   192
  0
VERTEX
  5
133
330
F
100
AcDbEntity
  8
0
100
AcDbVertex
100
AcDbPolyFaceMeshVertex
 10
127.3877092197228
 20
2145.0
 30
0.0000000000568093
 70
   192
  0
VERTEX
  5
134
330
F
100
AcDbEntity
  8
0
100
AcDbVertex
100
AcDbPolyFaceMeshVertex
 10
127.3877092197228
 20
2145.0
 30
0.0000000000568093
 70
   192
  0
VERTEX
  5
135
330
F
100
AcDbEntity
  8
0
100
AcDbVertex
100
AcDbPolyFaceMeshVertex
 10
-80.0
 20
2145.0
 30
0.0000000000568093
 70
   192
  0
VERTEX
  5
136
330
F
100
AcDbEntity
  8
0
100
AcDbVertex
100
AcDbPolyFaceMeshVertex
 10
-80.0
 20
2145.0
 30
0.0000000000568093
 70
   192
  0
VERTEX
  5
137
330
F
100
AcDbEntity
  8
0
100
AcDbVertex
100
AcDbPolyFaceMeshVertex
 10
-80.0
 20
2144.999999999995
 30
206.954890988891
 70
   192
  0
VERTEX
  5
138
330
F
100
AcDbEntity
  8
0
100
AcDbVertex
100
AcDbPolyFaceMeshVertex
 10
-80.0
 20
2129.999999999995
 30
206.9548909888906
 70
   192
  0
VERTEX
  5
139
330
F
100
AcDbEntity
  8
0
100
AcDbVertex
100
AcDbPolyFaceMeshVertex
 10
161.2474064562863
 20
2129.999999999989
 30
405.2898290321753
 70
   192
  0
VERTEX
  5
13A
330
F
100
AcDbEntity
  8
0
100
AcDbVertex
100
AcDbPolyFaceMeshVertex
 10
384.2474064562863
 20
2129.999999999985
 30
588.6231623655086
 70
   192
  0
VERTEX
  5
13B
330
F
100
AcDbEntity
  8
0
100
AcDbVertex
100
AcDbPolyFaceMeshVertex
 10
607.2474064562863
 20
2129.99999999998
 30
771.956495698842
 70
   192
  0
VERTEX
  5
13C
330
F
100
AcDbEntity
  8
0
100
AcDbVertex
100
AcDbPolyFaceMeshVertex
 10
830.2474064562863
 20
2129.999999999975
 30
955.2898290321754
 70
   192
  0
VERTEX
  5
13D
330
F
100
AcDbEntity
  8
0
100
AcDbVertex
100
AcDbPolyFaceMeshVertex
 10
1053.247406456286
 20
2129.99999999997
 30
1138.623162365509
 70
   192
  0
VERTEX
  5
13E
330
F
100
AcDbEntity
  8
0
100
AcDbVertex
100
AcDbPolyFaceMeshVertex
 10
1276.247406456286
 20
2129.999999999965
 30
1321.956495698842
 70
   192
  0
VERTEX
  5
13F
330
F
100
AcDbEntity
  8
0
100
AcDbVertex
100
AcDbPolyFaceMeshVertex
 10
1499.247406456286
 20
2129.99999999996
 30
1505.289829032175
 70
   192
  0
VERTEX
  5
140
330
F
100
AcDbEntity
  8
0
100
AcDbVertex
100
AcDbPolyFaceMeshVertex
 10
1722.247406456286
 20
2129.999999999955
 30
1688.623162365509
 70
   192
  0
VERTEX
  5
141
330
F
100
AcDbEntity
  8
0
100
AcDbVertex
100
AcDbPolyFaceMeshVertex
 10
1945.247406456286
 20
2129.99999999995
 30
1871.956495698842
 70
   192
  0
VERTEX
  5
142
330
F
100
AcDbEntity
  8
0
100
AcDbVertex
100
AcDbPolyFaceMeshVertex
 10
2168.247406456286
 20
2129.999999999945
 30
2055.289829032176
 70
   192
  0
VERTEX
  5
143
330
F
100
AcDbEntity
  8
0
100
AcDbVertex
100
AcDbPolyFaceMeshVertex
 10
2391.247406456286
 20
2129.999999999941
 30
2238.623162365509
 70
   192
  0
VERTEX
  5
144
330
F
100
AcDbEntity
  8
0
100
AcDbVertex
100
AcDbPolyFaceMeshVertex
 10
2614.247406456286
 20
2129.999999999936
 30
2421.956495698842
 70
   192
  0
VERTEX
  5
145
330
F
100
AcDbEntity
  8
0
100
AcDbVertex
100
AcDbPolyFaceMeshVertex
 10
2837.247406456286
 20
2129.999999999931
 30
2605.289829032176
 70
   192
  0
VERTEX
  5
146
330
F
100
AcDbEntity
  8
0
100
AcDbVertex
100
AcDbPolyFaceMeshVertex
 10
3074.085778051764
 20
2129.999999999926
 30
2800.000000000056
 70
   192
  0
VERTEX
  5
147
330
F
100
AcDbEntity
  8
0
100
AcDbVertex
100
AcDbPolyFaceMeshVertex
 10
3074.085778051764
 20
2129.999999999926
 30
2800.000000000056
 70
   192
  0
VERTEX
  5
148
330
F
100
AcDbEntity
  8
0
100
AcDbVertex
100
AcDbPolyFaceMeshVertex
 10
3315.0
 20
2129.999999999926
 30
2800.000000000056
 70
   192
  0
VERTEX
  5
149
330
F
100
AcDbEntity
  8
0
100
AcDbVertex
100
AcDbPolyFaceMeshVertex
 10
3315.0
 20
2129.999999999926
 30
2800.000000000056
 70
   192
  0
VERTEX
  5
14A
330
F
100
AcDbEntity
  8
0
100
AcDbVertex
100
AcDbPolyFaceMeshVertex
 10
3315.0
 20
2129.99999999993
 30
2620.608011852302
 70
   192
  0
VERTEX
  5
14B
330
F
100
AcDbEntity
  8
0
100
AcDbVertex
100
AcDbPolyFaceMeshVertex
 10
3315.0
 20
2129.99999999993
 30
2620.608011852302
 70
   192
  0
VERTEX
  5
14C
330
F
100
AcDbEntity
  8
0
100
AcDbVertex
100
AcDbPolyFaceMeshVertex
 10
3153.753353542473
 20
2129.999999999934
 30
2488.043504301271
 70
   192
  0
VERTEX
  5
14D
330
F
100
AcDbEntity
  8
0
100
AcDbVertex
100
AcDbPolyFaceMeshVertex
 10
2930.753353542473
 20
2129.999999999939
 30
2304.710170967938
 70
   192
  0
VERTEX
  5
14E
330
F
100
AcDbEntity
  8
0
100
AcDbVertex
100
AcDbPolyFaceMeshVertex
 10
2707.753353542473
 20
2129.999999999944
 30
2121.376837634604
 70
   192
  0
VERTEX
  5
14F
330
F
100
AcDbEntity
  8
0
100
AcDbVertex
100
AcDbPolyFaceMeshVertex
 10
2484.753353542473
 20
2129.999999999949
 30
1938.043504301271
 70
   192
  0
VERTEX
  5
150
330
F
100
AcDbEntity
  8
0
100
AcDbVertex
100
AcDbPolyFaceMeshVertex
 10
2261.753353542473
 20
2129.999999999954
 30
1754.710170967938
 70
   192
  0
VERTEX
  5
151
330
F
100
AcDbEntity
  8
0
100
AcDbVertex
100
AcDbPolyFaceMeshVertex
 10
2038.753353542473
 20
2129.999999999958
 30
1571.376837634604
 70
   192
  0
VERTEX
  5
152
330
F
100
AcDbEntity
  8
0
100
AcDbVertex
100
AcDbPolyFaceMeshVertex
 10
1815.753353542473
 20
2129.999999999963
 30
1388.043504301271
 70
   192
  0
VERTEX
  5
153
330
F
100
AcDbEntity
  8
0
100
AcDbVertex
100
AcDbPolyFaceMeshVertex
 10
1592.753353542473
 20
2129.999999999968
 30
1204.710170967938
 70
   192
  0
VERTEX
  5
154
330
F
100
AcDbEntity
  8
0
100
AcDbVertex
100
AcDbPolyFaceMeshVertex
 10
1369.753353542473
 20
2129.999999999973
 30
1021.376837634604
 70
   192
  0
VERTEX
  5
155
330
F
100
AcDbEntity
  8
0
100
AcDbVertex
100
AcDbPolyFaceMeshVertex
 10
1146.753353542473
 20
2129.999999999978
 30
838.0435043012709
 70
   192
  0
VERTEX
  5
156
330
F
100
AcDbEntity
  8
0
100
AcDbVertex
100
AcDbPolyFaceMeshVertex
 10
923.7533535424728
 20
2129.999999999983
 30
654.7101709679375
 70
   192
  0
VERTEX
  5
157
330
F
100
AcDbEntity
  8
0
100
AcDbVertex
100
AcDbPolyFaceMeshVertex
 10
700.7533535424728
 20
2129.999999999988
 30
471.3768376346042
 70
   192
  0
VERTEX
  5
158
330
F
100
AcDbEntity
  8
0
100
AcDbVertex
100
AcDbPolyFaceMeshVertex
 10
477.7533535424728
 20
2129.999999999992
 30
288.0435043012709
 70
   192
  0
VERTEX
  5
159
330
F
100
AcDbEntity
  8
0
100
AcDbVertex
100
AcDbPolyFaceMeshVertex
 10
127.3877092197228
 20
2130.0
 30
0.0000000000564121
 70
   192
  0
VERTEX
  5
15A
330
F
100
AcDbEntity
  8
0
100
AcDbVertex
100
AcDbPolyFaceMeshVertex
 10
127.3877092197228
 20
2130.0
 30
0.0000000000564121
 70
   192
  0
VERTEX
  5
15B
330
F
100
AcDbEntity
  8
0
100
AcDbVertex
100
AcDbPolyFaceMeshVertex
 10
-80.0
 20
2130.0
 30
0.0000000000564121
 70
   192
  0
VERTEX
  5
15C
330
F
100
AcDbEntity
  8
0
100
AcDbVertex
100
AcDbPolyFaceMeshVertex
 10
-80.0
 20
2130.0
 30
0.0000000000564121
 70
   192
  0
VERTEX
  5
15D
330
F
100
AcDbEntity
  8
0
100
AcDbVertex
100
AcDbPolyFaceMeshVertex
 10
-80.0
 20
2129.999999999995
 30
206.9548909888906
 70
   192
  0
VERTEX
  5
15E
330
F
100
AcDbEntity
  8
0
 62
     0
100
AcDbFaceRecord
 10
0.0
 20
0.0
 30
0.0
 70
   128
 71
   -38
 72
   -16
 73
   -17
 74
   -17
  0
VERTEX
  5
15F
330
F
100
AcDbEntity
  8
0
 62
     0
100
AcDbFaceRecord
 10
0.0
 20
0.0
 30
0.0
 70
   128
 71
   -76
 72
   -54
 73
   -55
 74
   -55
  0
VERTEX
  5
160
330
F
100
AcDbEntity
  8
0
 62
     0
100
AcDbFaceRecord
 10
0.0
 20
0.0
 30
0.0
 70
   128
 71
   -38
 72
   -18
 73
   -19
 74
   -19
  0
VERTEX
  5
161
330
F
100
AcDbEntity
  8
0
 62
     0
100
AcDbFaceRecord
 10
0.0
 20
0.0
 30
0.0
 70
   128
 71
   -76
 72
   -56
 73
   -57
 74
   -57
  0
VERTEX
  5
162
330
F
100
AcDbEntity
  8
0
 62
     0
100
AcDbFaceRecord
 10
0.0
 20
0.0
 30
0.0
 70
   128
 71
   -38
 72
   -20
 73
   -21
 74
   -21
  0
VERTEX
  5
163
330
F
100
AcDbEntity
  8
0
 62
     0
100
AcDbFaceRecord
 10
0.0
 20
0.0
 30
0.0
 70
   128
 71
   -76
 72
   -58
 73
   -59
 74
   -59
  0
VERTEX
  5
164
330
F
100
AcDbEntity
  8
0
 62
     0
100
AcDbFaceRecord
 10
0.0
 20
0.0
 30
0.0
 70
   128
 71
   -38
 72
   -21
 73
   -22
 74
   -22
  0
VERTEX
  5
165
330
F
100
AcDbEntity
  8
0
 62
     0
100
AcDbFaceRecord
 10
0.0
 20
0.0
 30
0.0
 70
   128
 71
   -76
 72
   -59
 73
   -60
 74
   -60
  0
VERTEX
  5
166
330
F
100
AcDbEntity
  8
0
 62
     0
100
AcDbFaceRecord
 10
0.0
 20
0.0
 30
0.0
 70
   128
 71
   -38
 72
   -22
 73
   -23
 74
   -23
  0
VERTEX
  5
167
330
F
100
AcDbEntity
  8
0
 62
     0
100
AcDbFaceRecord
 10
0.0
 20
0.0
 30
0.0
 70
   128
 71
   -76
 72
   -60
 73
   -61
 74
   -61
  0
VERTEX
  5
168
330
F
100
AcDbEntity
  8
0
 62
     0
100
AcDbFaceRecord
 10
0.0
 20
0.0
 30
0.0
 70
   128
 71
   -38
 72
   -23
 73
   -24
 74
   -24
  0
VERTEX
  5
169
330
F
100
AcDbEntity
  8
0
 62
     0
100
AcDbFaceRecord
 10
0.0
 20
0.0
 30
0.0
 70
   128
 71
   -76
 72
   -61
 73
   -62
 74
   -62
  0
VERTEX
  5
16A
330
F
100
AcDbEntity
  8
0
 62
     0
100
AcDbFaceRecord
 10
0.0
 20
0.0
 30
0.0
 70
   128
 71
   -38
 72
   -24
 73
   -25
 74
   -25
  0
VERTEX
  5
16B
330
F
100
AcDbEntity
  8
0
 62
     0
100
AcDbFaceRecord
 10
0.0
 20
0.0
 30
0.0
 70
   128
 71
   -76
 72
   -62
 73
   -63
 74
   -63
  0
VERTEX
  5
16C
330
F
100
AcDbEntity
  8
0
 62
     0
100
AcDbFaceRecord
 10
0.0
 20
0.0
 30
0.0
 70
   128
 71
   -38
 72
   -25
 73
   -26
 74
   -26
  0
VERTEX
  5
16D
330
F
100
AcDbEntity
  8
0
 62
     0
100
AcDbFaceRecord
 10
0.0
 20
0.0
 30
0.0
 70
   128
 71
   -76
 72
   -63
 73
   -64
 74
   -64
  0
VERTEX
  5
16E
330
F
100
AcDbEntity
  8
0
 62
     0
100
AcDbFaceRecord
 10
0.0
 20
0.0
 30
0.0
 70
   128
 71
   -38
 72
   -26
 73
   -27
 74
   -27
  0
VERTEX
  5
16F
330
F
100
AcDbEntity
  8
0
 62
     0
100
AcDbFaceRecord
 10
0.0
 20
0.0
 30
0.0
 70
   128
 71
   -76
 72
   -64
 73
   -65
 74
   -65
  0
VERTEX
  5
170
330
F
100
AcDbEntity
  8
0
 62
     0
100
AcDbFaceRecord
 10
0.0
 20
0.0
 30
0.0
 70
   128
 71
   -38
 72
   -27
 73
   -28
 74
   -28
  0
VERTEX
  5
171
330
F
100
AcDbEntity
  8
0
 62
     0
100
AcDbFaceRecord
 10
0.0
 20
0.0
 30
0.0
 70
   128
 71
   -76
 72
   -65
 73
   -66
 74
   -66
  0
VERTEX
  5
172
330
F
100
AcDbEntity
  8
0
 62
     0
100
AcDbFaceRecord
 10
0.0
 20
0.0
 30
0.0
 70
   128
 71
   -38
 72
   -28
 73
   -29
 74
   -29
  0
VERTEX
  5
173
330
F
100
AcDbEntity
  8
0
 62
     0
100
AcDbFaceRecord
 10
0.0
 20
0.0
 30
0.0
 70
   128
 71
   -76
 72
   -66
 73
   -67
 74
   -67
  0
VERTEX
  5
174
330
F
100
AcDbEntity
  8
0
 62
     0
100
AcDbFaceRecord
 10
0.0
 20
0.0
 30
0.0
 70
   128
 71
   -38
 72
   -29
 73
   -30
 74
   -30
  0
VERTEX
  5
175
330
F
100
AcDbEntity
  8
0
 62
     0
100
AcDbFaceRecord
 10
0.0
 20
0.0
 30
0.0
 70
   128
 71
   -76
 72
   -67
 73
   -68
 74
   -68
  0
VERTEX
  5
176
330
F
100
AcDbEntity
  8
0
 62
     0
100
AcDbFaceRecord
 10
0.0
 20
0.0
 30
0.0
 70
   128
 71
   -38
 72
   -30
 73
   -31
 74
   -31
  0
VERTEX
  5
177
330
F
100
AcDbEntity
  8
0
 62
     0
100
AcDbFaceRecord
 10
0.0
 20
0.0
 30
0.0
 70
   128
 71
   -76
 72
   -68
 73
   -69
 74
   -69
  0
VERTEX
  5
178
330
F
100
AcDbEntity
  8
0
 62
     0
100
AcDbFaceRecord
 10
0.0
 20
0.0
 30
0.0
 70
   128
 71
   -38
 72
   -31
 73
   -32
 74
   -32
  0
VERTEX
  5
179
330
F
100
AcDbEntity
  8
0
 62
     0
100
AcDbFaceRecord
 10
0.0
 20
0.0
 30
0.0
 70
   128
 71
   -76
 72
   -69
 73
   -70
 74
   -70
  0
VERTEX
  5
17A
330
F
100
AcDbEntity
  8
0
 62
     0
100
AcDbFaceRecord
 10
0.0
 20
0.0
 30
0.0
 70
   128
 71
   -38
 72
   -32
 73
   -33
 74
   -33
  0
VERTEX
  5
17B
330
F
100
AcDbEntity
  8
0
 62
     0
100
AcDbFaceRecord
 10
0.0
 20
0.0
 30
0.0
 70
   128
 71
   -76
 72
   -70
 73
   -71
 74
   -71
  0
VERTEX
  5
17C
330
F
100
AcDbEntity
  8
0
 62
     0
100
AcDbFaceRecord
 10
0.0
 20
0.0
 30
0.0
 70
   128
 71
   -38
 72
   -33
 73
   -34
 74
   -34
  0
VERTEX
  5
17D
330
F
100
AcDbEntity
  8
0
 62
     0
100
AcDbFaceRecord
 10
0.0
 20
0.0
 30
0.0
 70
   128
 71
   -76
 72
   -71
 73
   -72
 74
   -72
  0
VERTEX
  5
17E
330
F
100
AcDbEntity
  8
0
 62
     0
100
AcDbFaceRecord
 10
0.0
 20
0.0
 30
0.0
 70
   128
 71
   -37
 72
   -38
 73
   -35
 74
   -35
  0
VERTEX
  5
17F
330
F
100
AcDbEntity
  8
0
 62
     0
100
AcDbFaceRecord
 10
0.0
 20
0.0
 30
0.0
 70
   128
 71
   -75
 72
   -76
 73
   -73
 74
   -73
  0
VERTEX
  5
180
330
F
100
AcDbEntity
  8
0
 62
     0
100
AcDbFaceRecord
 10
0.0
 20
0.0
 30
0.0
 70
   128
 71
     1
 72
     2
 73
    40
 74
    39
  0
VERTEX
  5
181
330
F
100
AcDbEntity
  8
0
 62
     0
100
AcDbFaceRecord
 10
0.0
 20
0.0
 30
0.0
 70
   128
 71
     2
 72
     3
 73
    41
 74
    40
  0
VERTEX
  5
182
330
F
100
AcDbEntity
  8
0
 62
     0
100
AcDbFaceRecord
 10
0.0
 20
0.0
 30
0.0
 70
   128
 71
     3
 72
     4
 73
    42
 74
    41
  0
VERTEX
  5
183
330
F
100
AcDbEntity
  8
0
 62
     0
100
AcDbFaceRecord
 10
0.0
 20
0.0
 30
0.0
 70
   128
 71
     4
 72
     5
 73
    43
 74
    42
  0
VERTEX
  5
184
330
F
100
AcDbEntity
  8
0
 62
     0
100
AcDbFaceRecord
 10
0.0
 20
0.0
 30
0.0
 70
   128
 71
     5
 72
     6
 73
    44
 74
    43
  0
VERTEX
  5
185
330
F
100
AcDbEntity
  8
0
 62
     0
100
AcDbFaceRecord
 10
0.0
 20
0.0
 30
0.0
 70
   128
 71
     6
 72
     7
 73
    45
 74
    44
  0
VERTEX
  5
186
330
F
100
AcDbEntity
  8
0
 62
     0
100
AcDbFaceRecord
 10
0.0
 20
0.0
 30
0.0
 70
   128
 71
     7
 72
     8
 73
    46
 74
    45
  0
VERTEX
  5
187
330
F
100
AcDbEntity
  8
0
 62
     0
100
AcDbFaceRecord
 10
0.0
 20
0.0
 30
0.0
 70
   128
 71
     8
 72
     9
 73
    47
 74
    46
  0
VERTEX
  5
188
330
F
100
AcDbEntity
  8
0
 62
     0
100
AcDbFaceRecord
 10
0.0
 20
0.0
 30
0.0
 70
   128
 71
     9
 72
    10
 73
    48
 74
    47
  0
VERTEX
  5
189
330
F
100
AcDbEntity
  8
0
 62
     0
100
AcDbFaceRecord
 10
0.0
 20
0.0
 30
0.0
 70
   128
 71
    10
 72
    11
 73
    49
 74
    48
  0
VERTEX
  5
18A
330
F
100
AcDbEntity
  8
0
 62
     0
100
AcDbFaceRecord
 10
0.0
 20
0.0
 30
0.0
 70
   128
 71
    11
 72
    12
 73
    50
 74
    49
  0
VERTEX
  5
18B
330
F
100
AcDbEntity
  8
0
 62
     0
100
AcDbFaceRecord
 10
0.0
 20
0.0
 30
0.0
 70
   128
 71
    12
 72
    13
 73
    51
 74
    50
  0
VERTEX
  5
18C
330
F
100
AcDbEntity
  8
0
 62
     0
100
AcDbFaceRecord
 10
0.0
 20
0.0
 30
0.0
 70
   128
 71
    13
 72
    14
 73
    52
 74
    51
  0
VERTEX
  5
18D
330
F
100
AcDbEntity
  8
0
 62
     0
100
AcDbFaceRecord
 10
0.0
 20
0.0
 30
0.0
 70
   128
 71
    14
 72
    15
 73
    53
 74
    52
  0
VERTEX
  5
18E
330
F
100
AcDbEntity
  8
0
 62
     0
100
AcDbFaceRecord
 10
0.0
 20
0.0
 30
0.0
 70
   128
 71
    15
 72
    16
 73
    54
 74
    53
  0
VERTEX
  5
18F
330
F
100
AcDbEntity
  8
0
 62
     0
100
AcDbFaceRecord
 10
0.0
 20
0.0
 30
0.0
 70
   128
 71
    16
 72
    17
 73
    55
 74
    54
  0
VERTEX
  5
190
330
F
100
AcDbEntity
  8
0
 62
     0
100
AcDbFaceRecord
 10
0.0
 20
0.0
 30
0.0
 70
   128
 71
    17
 72
    18
 73
    56
 74
    55
  0
VERTEX
  5
191
330
F
100
AcDbEntity
  8
0
 62
     0
100
AcDbFaceRecord
 10
0.0
 20
0.0
 30
0.0
 70
   128
 71
    18
 72
    19
 73
    57
 74
    56
  0
VERTEX
  5
192
330
F
100
AcDbEntity
  8
0
 62
     0
100
AcDbFaceRecord
 10
0.0
 20
0.0
 30
0.0
 70
   128
 71
    19
 72
    20
 73
    58
 74
    57
  0
VERTEX
  5
193
330
F
100
AcDbEntity
  8
0
 62
     0
100
AcDbFaceRecord
 10
0.0
 20
0.0
 30
0.0
 70
   128
 71
    20
 72
    21
 73
    59
 74
    58
  0
VERTEX
  5
194
330
F
100
AcDbEntity
  8
0
 62
     0
100
AcDbFaceRecord
 10
0.0
 20
0.0
 30
0.0
 70
   128
 71
    21
 72
    22
 73
    60
 74
    59
  0
VERTEX
  5
195
330
F
100
AcDbEntity
  8
0
 62
     0
100
AcDbFaceRecord
 10
0.0
 20
0.0
 30
0.0
 70
   128
 71
    22
 72
    23
 73
    61
 74
    60
  0
VERTEX
  5
196
330
F
100
AcDbEntity
  8
0
 62
     0
100
AcDbFaceRecord
 10
0.0
 20
0.0
 30
0.0
 70
   128
 71
    23
 72
    24
 73
    62
 74
    61
  0
VERTEX
  5
197
330
F
100
AcDbEntity
  8
0
 62
     0
100
AcDbFaceRecord
 10
0.0
 20
0.0
 30
0.0
 70
   128
 71
    24
 72
    25
 73
    63
 74
    62
  0
VERTEX
  5
198
330
F
100
AcDbEntity
  8
0
 62
     0
100
AcDbFaceRecord
 10
0.0
 20
0.0
 30
0.0
 70
   128
 71
    25
 72
    26
 73
    64
 74
    63
  0
VERTEX
  5
199
330
F
100
AcDbEntity
  8
0
 62
     0
100
AcDbFaceRecord
 10
0.0
 20
0.0
 30
0.0
 70
   128
 71
    26
 72
    27
 73
    65
 74
    64
  0
VERTEX
  5
19A
330
F
100
AcDbEntity
  8
0
 62
     0
100
AcDbFaceRecord
 10
0.0
 20
0.0
 30
0.0
 70
   128
 71
    27
 72
    28
 73
    66
 74
    65
  0
VERTEX
  5
19B
330
F
100
AcDbEntity
  8
0
 62
     0
100
AcDbFaceRecord
 10
0.0
 20
0.0
 30
0.0
 70
   128
 71
    28
 72
    29
 73
    67
 74
    66
  0
VERTEX
  5
19C
330
F
100
AcDbEntity
  8
0
 62
     0
100
AcDbFaceRecord
 10
0.0
 20
0.0
 30
0.0
 70
   128
 71
    29
 72
    30
 73
    68
 74
    67
  0
VERTEX
  5
19D
330
F
100
AcDbEntity
  8
0
 62
     0
100
AcDbFaceRecord
 10
0.0
 20
0.0
 30
0.0
 70
   128
 71
    30
 72
    31
 73
    69
 74
    68
  0
VERTEX
  5
19E
330
F
100
AcDbEntity
  8
0
 62
     0
100
AcDbFaceRecord
 10
0.0
 20
0.0
 30
0.0
 70
   128
 71
    31
 72
    32
 73
    70
 74
    69
  0
VERTEX
  5
19F
330
F
100
AcDbEntity
  8
0
 62
     0
100
AcDbFaceRecord
 10
0.0
 20
0.0
 30
0.0
 70
   128
 71
    32
 72
    33
 73
    71
 74
    70
  0
VERTEX
  5
1A0
330
F
100
AcDbEntity
  8
0
 62
     0
100
AcDbFaceRecord
 10
0.0
 20
0.0
 30
0.0
 70
   128
 71
    33
 72
    34
 73
    72
 74
    71
  0
VERTEX
  5
1A1
330
F
100
AcDbEntity
  8
0
 62
     0
100
AcDbFaceRecord
 10
0.0
 20
0.0
 30
0.0
 70
   128
 71
    34
 72
    35
 73
    73
 74
    72
  0
VERTEX
  5
1A2
330
F
100
AcDbEntity
  8
0
 62
     0
100
AcDbFaceRecord
 10
0.0
 20
0.0
 30
0.0
 70
   128
 71
    35
 72
    36
 73
    74
 74
    73
  0
VERTEX
  5
1A3
330
F
100
AcDbEntity
  8
0
 62
     0
100
AcDbFaceRecord
 10
0.0
 20
0.0
 30
0.0
 70
   128
 71
    36
 72
    37
 73
    75
 74
    74
  0
VERTEX
  5
1A4
330
F
100
AcDbEntity
  8
0
 62
     0
100
AcDbFaceRecord
 10
0.0
 20
0.0
 30
0.0
 70
   128
 71
    37
 72
    38
 73
    76
 74
    75
  0
SEQEND
  5
111
330
F
100
AcDbEntity
  8
HOLME
  0
LWPOLYLINE
  5
10
330
4E
100
AcDbEntity
  8
STUFEN
100
AcDbPolyline
 90
        5
 70
     0
 43
0.0
 38
183.3333333333333
 10
-29.99961999962
 20
2935.0
 10
-30.00041000041
 20
2145.0
 10
222.9995899975891
 20
2145.0
 10
223.0003799983791
 20
2935.0
 10
-29.99961999962
 20
2935.0
  0
POLYLINE
  5
11
330
4E
100
AcDbEntity
  8
STUFEN
100
AcDbPolyFaceMesh
 66
     1
 10
0.0
 20
0.0
 30
0.0
 70
    64
 71
    10
 72
     8
  0
VERTEX
  5
1A6
330
11
100
AcDbEntity
  8
0
100
AcDbVertex
100
AcDbPolyFaceMeshVertex
 10
-29.99961999962
 20
2935.0
 30
183.3333333333333
 70
   192
  0
VERTEX
  5
1A7
330
11
100
AcDbEntity
  8
0
100
AcDbVertex
100
AcDbPolyFaceMeshVertex
 10
-30.00041000041
 20
2145.0
 30
183.3333333333333
 70
   192
  0
VERTEX
  5
1A8
330
11
100
AcDbEntity
  8
0
100
AcDbVertex
100
AcDbPolyFaceMeshVertex
 10
222.9995899975891
 20
2145.0
 30
183.3333333333333
 70
   192
  0
VERTEX
  5
1A9
330
11
100
AcDbEntity
  8
0
100
AcDbVertex
100
AcDbPolyFaceMeshVertex
 10
223.0003799983791
 20
2935.0
 30
183.3333333333333
 70
   192
  0
VERTEX
  5
1AA
330
11
100
AcDbEntity
  8
0
100
AcDbVertex
100
AcDbPolyFaceMeshVertex
 10
-29.99961999962
 20
2935.0
 30
183.3333333333333
 70
   192
  0
VERTEX
  5
1AB
330
11
100
AcDbEntity
  8
0
100
AcDbVertex
100
AcDbPolyFaceMeshVertex
 10
-29.99961999962
 20
2935.0
 30
143.3333333333333
 70
   192
  0
VERTEX
  5
1AC
330
11
100
AcDbEntity
  8
0
100
AcDbVertex
100
AcDbPolyFaceMeshVertex
 10
-30.00041000041
 20
2145.0
 30
143.3333333333333
 70
   192
  0
VERTEX
  5
1AD
330
11
100
AcDbEntity
  8
0
100
AcDbVertex
100
AcDbPolyFaceMeshVertex
 10
222.9995899975891
 20
2145.0
 30
143.3333333333333
 70
   192
  0
VERTEX
  5
1AE
330
11
100
AcDbEntity
  8
0
100
AcDbVertex
100
AcDbPolyFaceMeshVertex
 10
223.0003799983791
 20
2935.0
 30
143.3333333333333
 70
   192
  0
VERTEX
  5
1AF
330
11
100
AcDbEntity
  8
0
100
AcDbVertex
100
AcDbPolyFaceMeshVertex
 10
-29.99961999962
 20
2935.0
 30
143.3333333333333
 70
   192
  0
VERTEX
  5
1B0
330
11
100
AcDbEntity
  8
0
 62
     0
100
AcDbFaceRecord
 10
0.0
 20
0.0
 30
0.0
 70
   128
 71
    -5
 72
    -2
 73
    -3
 74
    -3
  0
VERTEX
  5
1B1
330
11
100
AcDbEntity
  8
0
 62
     0
100
AcDbFaceRecord
 10
0.0
 20
0.0
 30
0.0
 70
   128
 71
   -10
 72
    -7
 73
    -8
 74
    -8
  0
VERTEX
  5
1B2
330
11
100
AcDbEntity
  8
0
 62
     0
100
AcDbFaceRecord
 10
0.0
 20
0.0
 30
0.0
 70
   128
 71
    -3
 72
    -4
 73
    -5
 74
    -5
  0
VERTEX
  5
1B3
330
11
100
AcDbEntity
  8
0
 62
     0
100
AcDbFaceRecord
 10
0.0
 20
0.0
 30
0.0
 70
   128
 71
    -8
 72
    -9
 73
   -10
 74
   -10
  0
VERTEX
  5
1B4
330
11
100
AcDbEntity
  8
0
 62
     0
100
AcDbFaceRecord
 10
0.0
 20
0.0
 30
0.0
 70
   128
 71
     1
 72
     2
 73
     7
 74
     6
  0
VERTEX
  5
1B5
330
11
100
AcDbEntity
  8
0
 62
     0
100
AcDbFaceRecord
 10
0.0
 20
0.0
 30
0.0
 70
   128
 71
     2
 72
     3
 73
     8
 74
     7
  0
VERTEX
  5
1B6
330
11
100
AcDbEntity
  8
0
 62
     0
100
AcDbFaceRecord
 10
0.0
 20
0.0
 30
0.0
 70
   128
 71
     3
 72
     4
 73
     9
 74
     8
  0
VERTEX
  5
1B7
330
11
100
AcDbEntity
  8
0
 62
     0
100
AcDbFaceRecord
 10
0.0
 20
0.0
 30
0.0
 70
   128
 71
     4
 72
     5
 73
    10
 74
     9
  0
SEQEND
  5
1A5
330
11
100
AcDbEntity
  8
STUFEN
  0
LWPOLYLINE
  5
12
330
4E
100
AcDbEntity
  8
STUFEN
100
AcDbPolyline
 90
        5
 70
     0
 43
0.0
 38
366.6666666666667
 10
193.00038000038
 20
2935.0
 10
192.99958999959
 20
2145.0
 10
445.9995899975891
 20
2145.0
 10
446.0003799983791
 20
2935.0
 10
193.00038000038
 20
2935.0
  0
POLYLINE
  5
13
330
4E
100
AcDbEntity
  8
STUFEN
100
AcDbPolyFaceMesh
 66
     1
 10
0.0
 20
0.0
 30
0.0
 70
    64
 71
    10
 72
     8
  0
VERTEX
  5
1B9
330
13
100
AcDbEntity
  8
0
100
AcDbVertex
100
AcDbPolyFaceMeshVertex
 10
193.00038000038
 20
2935.0
 30
366.6666666666667
 70
   192
  0
VERTEX
  5
1BA
330
13
100
AcDbEntity
  8
0
100
AcDbVertex
100
AcDbPolyFaceMeshVertex
 10
192.99958999959
 20
2145.0
 30
366.6666666666667
 70
   192
  0
VERTEX
  5
1BB
330
13
100
AcDbEntity
  8
0
100
AcDbVertex
100
AcDbPolyFaceMeshVertex
 10
445.9995899975891
 20
2145.0
 30
366.6666666666667
 70
   192
  0
VERTEX
  5
1BC
330
13
100
AcDbEntity
  8
0
100
AcDbVertex
100
AcDbPolyFaceMeshVertex
 10
446.0003799983791
 20
2935.0
 30
366.6666666666667
 70
   192
  0
VERTEX
  5
1BD
330
13
100
AcDbEntity
  8
0
100
AcDbVertex
100
AcDbPolyFaceMeshVertex
 10
193.00038000038
 20
2935.0
 30
366.6666666666667
 70
   192
  0
VERTEX
  5
1BE
330
13
100
AcDbEntity
  8
0
100
AcDbVertex
100
AcDbPolyFaceMeshVertex
 10
193.00038000038
 20
2935.0
 30
326.6666666666667
 70
   192
  0
VERTEX
  5
1BF
330
13
100
AcDbEntity
  8
0
100
AcDbVertex
100
AcDbPolyFaceMeshVertex
 10
192.99958999959
 20
2145.0
 30
326.6666666666667
 70
   192
  0
VERTEX
  5
1C0
330
13
100
AcDbEntity
  8
0
100
AcDbVertex
100
AcDbPolyFaceMeshVertex
 10
445.9995899975891
 20
2145.0
 30
326.6666666666667
 70
   192
  0
VERTEX
  5
1C1
330
13
100
AcDbEntity
  8
0
100
AcDbVertex
100
AcDbPolyFaceMeshVertex
 10
446.0003799983791
 20
2935.0
 30
326.6666666666667
 70
   192
  0
VERTEX
  5
1C2
330
13
100
AcDbEntity
  8
0
100
AcDbVertex
100
AcDbPolyFaceMeshVertex
 10
193.00038000038
 20
2935.0
 30
326.6666666666667
 70
   192
  0
VERTEX
  5
1C3
330
13
100
AcDbEntity
  8
0
 62
     0
100
AcDbFaceRecord
 10
0.0
 20
0.0
 30
0.0
 70
   128
 71
    -5
 72
    -2
 73
    -3
 74
    -3
  0
VERTEX
  5
1C4
330
13
100
AcDbEntity
  8
0
 62
     0
100
AcDbFaceRecord
 10
0.0
 20
0.0
 30
0.0
 70
   128
 71
   -10
 72
    -7
 73
    -8
 74
    -8
  0
VERTEX
  5
1C5
330
13
100
AcDbEntity
  8
0
 62
     0
100
AcDbFaceRecord
 10
0.0
 20
0.0
 30
0.0
 70
   128
 71
    -3
 72
    -4
 73
    -5
 74
    -5
  0
VERTEX
  5
1C6
330
13
100
AcDbEntity
  8
0
 62
     0
100
AcDbFaceRecord
 10
0.0
 20
0.0
 30
0.0
 70
   128
 71
    -8
 72
    -9
 73
   -10
 74
   -10
  0
VERTEX
  5
1C7
330
13
100
AcDbEntity
  8
0
 62
     0
100
AcDbFaceRecord
 10
0.0
 20
0.0
 30
0.0
 70
   128
 71
     1
 72
     2
 73
     7
 74
     6
  0
VERTEX
  5
1C8
330
13
100
AcDbEntity
  8
0
 62
     0
100
AcDbFaceRecord
 10
0.0
 20
0.0
 30
0.0
 70
   128
 71
     2
 72
     3
 73
     8
 74
     7
  0
VERTEX
  5
1C9
330
13
100
AcDbEntity
  8
0
 62
     0
100
AcDbFaceRecord
 10
0.0
 20
0.0
 30
0.0
 70
   128
 71
     3
 72
     4
 73
     9
 74
     8
  0
VERTEX
  5
1CA
330
13
100
AcDbEntity
  8
0
 62
     0
100
AcDbFaceRecord
 10
0.0
 20
0.0
 30
0.0
 70
   128
 71
     4
 72
     5
 73
    10
 74
     9
  0
SEQEND
  5
1B8
330
13
100
AcDbEntity
  8
STUFEN
  0
LWPOLYLINE
  5
14
330
4E
100
AcDbEntity
  8
STUFEN
100
AcDbPolyline
 90
        5
 70
     0
 43
0.0
 38
550.0
 10
416.00038000038
 20
2935.0
 10
415.99958999959
 20
2145.0
 10
668.9995899975891
 20
2145.0
 10
669.0003799983791
 20
2935.0
 10
416.00038000038
 20
2935.0
  0
POLYLINE
  5
15
330
4E
100
AcDbEntity
  8
STUFEN
100
AcDbPolyFaceMesh
 66
     1
 10
0.0
 20
0.0
 30
0.0
 70
    64
 71
    10
 72
     8
  0
VERTEX
  5
1CC
330
15
100
AcDbEntity
  8
0
100
AcDbVertex
100
AcDbPolyFaceMeshVertex
 10
416.00038000038
 20
2935.0
 30
550.0
 70
   192
  0
VERTEX
  5
1CD
330
15
100
AcDbEntity
  8
0
100
AcDbVertex
100
AcDbPolyFaceMeshVertex
 10
415.99958999959
 20
2145.0
 30
550.0
 70
   192
  0
VERTEX
  5
1CE
330
15
100
AcDbEntity
  8
0
100
AcDbVertex
100
AcDbPolyFaceMeshVertex
 10
668.9995899975891
 20
2145.0
 30
550.0
 70
   192
  0
VERTEX
  5
1CF
330
15
100
AcDbEntity
  8
0
100
AcDbVertex
100
AcDbPolyFaceMeshVertex
 10
669.0003799983791
 20
2935.0
 30
550.0
 70
   192
  0
VERTEX
  5
1D0
330
15
100
AcDbEntity
  8
0
100
AcDbVertex
100
AcDbPolyFaceMeshVertex
 10
416.00038000038
 20
2935.0
 30
550.0
 70
   192
  0
VERTEX
  5
1D1
330
15
100
AcDbEntity
  8
0
100
AcDbVertex
100
AcDbPolyFaceMeshVertex
 10
416.00038000038
 20
2935.0
 30
510.0
 70
   192
  0
VERTEX
  5
1D2
330
15
100
AcDbEntity
  8
0
100
AcDbVertex
100
AcDbPolyFaceMeshVertex
 10
415.99958999959
 20
2145.0
 30
510.0
 70
   192
  0
VERTEX
  5
1D3
330
15
100
AcDbEntity
  8
0
100
AcDbVertex
100
AcDbPolyFaceMeshVertex
 10
668.9995899975891
 20
2145.0
 30
510.0
 70
   192
  0
VERTEX
  5
1D4
330
15
100
AcDbEntity
  8
0
100
AcDbVertex
100
AcDbPolyFaceMeshVertex
 10
669.0003799983791
 20
2935.0
 30
510.0
 70
   192
  0
VERTEX
  5
1D5
330
15
100
AcDbEntity
  8
0
100
AcDbVertex
100
AcDbPolyFaceMeshVertex
 10
416.00038000038
 20
2935.0
 30
510.0
 70
   192
  0
VERTEX
  5
1D6
330
15
100
AcDbEntity
  8
0
 62
     0
100
AcDbFaceRecord
 10
0.0
 20
0.0
 30
0.0
 70
   128
 71
    -5
 72
    -2
 73
    -3
 74
    -3
  0
VERTEX
  5
1D7
330
15
100
AcDbEntity
  8
0
 62
     0
100
AcDbFaceRecord
 10
0.0
 20
0.0
 30
0.0
 70
   128
 71
   -10
 72
    -7
 73
    -8
 74
    -8
  0
VERTEX
  5
1D8
330
15
100
AcDbEntity
  8
0
 62
     0
100
AcDbFaceRecord
 10
0.0
 20
0.0
 30
0.0
 70
   128
 71
    -3
 72
    -4
 73
    -5
 74
    -5
  0
VERTEX
  5
1D9
330
15
100
AcDbEntity
  8
0
 62
     0
100
AcDbFaceRecord
 10
0.0
 20
0.0
 30
0.0
 70
   128
 71
    -8
 72
    -9
 73
   -10
 74
   -10
  0
VERTEX
  5
1DA
330
15
100
AcDbEntity
  8
0
 62
     0
100
AcDbFaceRecord
 10
0.0
 20
0.0
 30
0.0
 70
   128
 71
     1
 72
     2
 73
     7
 74
     6
  0
VERTEX
  5
1DB
330
15
100
AcDbEntity
  8
0
 62
     0
100
AcDbFaceRecord
 10
0.0
 20
0.0
 30
0.0
 70
   128
 71
     2
 72
     3
 73
     8
 74
     7
  0
VERTEX
  5
1DC
330
15
100
AcDbEntity
  8
0
 62
     0
100
AcDbFaceRecord
 10
0.0
 20
0.0
 30
0.0
 70
   128
 71
     3
 72
     4
 73
     9
 74
     8
  0
VERTEX
  5
1DD
330
15
100
AcDbEntity
  8
0
 62
     0
100
AcDbFaceRecord
 10
0.0
 20
0.0
 30
0.0
 70
   128
 71
     4
 72
     5
 73
    10
 74
     9
  0
SEQEND
  5
1CB
330
15
100
AcDbEntity
  8
STUFEN
  0
LWPOLYLINE
  5
16
330
4E
100
AcDbEntity
  8
STUFEN
100
AcDbPolyline
 90
        5
 70
     0
 43
0.0
 38
733.3333333333334
 10
639.00038000038
 20
2935.0
 10
638.9995899995899
 20
2145.0
 10
891.9995899975891
 20
2145.0
 10
892.0003799983791
 20
2935.0
 10
639.00038000038
 20
2935.0
  0
POLYLINE
  5
17
330
4E
100
AcDbEntity
  8
STUFEN
100
AcDbPolyFaceMesh
 66
     1
 10
0.0
 20
0.0
 30
0.0
 70
    64
 71
    10
 72
     8
  0
VERTEX
  5
1DF
330
17
100
AcDbEntity
  8
0
100
AcDbVertex
100
AcDbPolyFaceMeshVertex
 10
639.00038000038
 20
2935.0
 30
733.3333333333334
 70
   192
  0
VERTEX
  5
1E0
330
17
100
AcDbEntity
  8
0
100
AcDbVertex
100
AcDbPolyFaceMeshVertex
 10
638.9995899995899
 20
2145.0
 30
733.3333333333334
 70
   192
  0
VERTEX
  5
1E1
330
17
100
AcDbEntity
  8
0
100
AcDbVertex
100
AcDbPolyFaceMeshVertex
 10
891.9995899975891
 20
2145.0
 30
733.3333333333334
 70
   192
  0
VERTEX
  5
1E2
330
17
100
AcDbEntity
  8
0
100
AcDbVertex
100
AcDbPolyFaceMeshVertex
 10
892.0003799983791
 20
2935.0
 30
733.3333333333334
 70
   192
  0
VERTEX
  5
1E3
330
17
100
AcDbEntity
  8
0
100
AcDbVertex
100
AcDbPolyFaceMeshVertex
 10
639.00038000038
 20
2935.0
 30
733.3333333333334
 70
   192
  0
VERTEX
  5
1E4
330
17
100
AcDbEntity
  8
0
100
AcDbVertex
100
AcDbPolyFaceMeshVertex
 10
639.00038000038
 20
2935.0
 30
693.3333333333334
 70
   192
  0
VERTEX
  5
1E5
330
17
100
AcDbEntity
  8
0
100
AcDbVertex
100
AcDbPolyFaceMeshVertex
 10
638.9995899995899
 20
2145.0
 30
693.3333333333334
 70
   192
  0
VERTEX
  5
1E6
330
17
100
AcDbEntity
  8
0
100
AcDbVertex
100
AcDbPolyFaceMeshVertex
 10
891.9995899975891
 20
2145.0
 30
693.3333333333334
 70
   192
  0
VERTEX
  5
1E7
330
17
100
AcDbEntity
  8
0
100
AcDbVertex
100
AcDbPolyFaceMeshVertex
 10
892.0003799983791
 20
2935.0
 30
693.3333333333334
 70
   192
  0
VERTEX
  5
1E8
330
17
100
AcDbEntity
  8
0
100
AcDbVertex
100
AcDbPolyFaceMeshVertex
 10
639.00038000038
 20
2935.0
 30
693.3333333333334
 70
   192
  0
VERTEX
  5
1E9
330
17
100
AcDbEntity
  8
0
 62
     0
100
AcDbFaceRecord
 10
0.0
 20
0.0
 30
0.0
 70
   128
 71
    -5
 72
    -2
 73
    -3
 74
    -3
  0
VERTEX
  5
1EA
330
17
100
AcDbEntity
  8
0
 62
     0
100
AcDbFaceRecord
 10
0.0
 20
0.0
 30
0.0
 70
   128
 71
   -10
 72
    -7
 73
    -8
 74
    -8
  0
VERTEX
  5
1EB
330
17
100
AcDbEntity
  8
0
 62
     0
100
AcDbFaceRecord
 10
0.0
 20
0.0
 30
0.0
 70
   128
 71
    -3
 72
    -4
 73
    -5
 74
    -5
  0
VERTEX
  5
1EC
330
17
100
AcDbEntity
  8
0
 62
     0
100
AcDbFaceRecord
 10
0.0
 20
0.0
 30
0.0
 70
   128
 71
    -8
 72
    -9
 73
   -10
 74
   -10
  0
VERTEX
  5
1ED
330
17
100
AcDbEntity
  8
0
 62
     0
100
AcDbFaceRecord
 10
0.0
 20
0.0
 30
0.0
 70
   128
 71
     1
 72
     2
 73
     7
 74
     6
  0
VERTEX
  5
1EE
330
17
100
AcDbEntity
  8
0
 62
     0
100
AcDbFaceRecord
 10
0.0
 20
0.0
 30
0.0
 70
   128
 71
     2
 72
     3
 73
     8
 74
     7
  0
VERTEX
  5
1EF
330
17
100
AcDbEntity
  8
0
 62
     0
100
AcDbFaceRecord
 10
0.0
 20
0.0
 30
0.0
 70
   128
 71
     3
 72
     4
 73
     9
 74
     8
  0
VERTEX
  5
1F0
330
17
100
AcDbEntity
  8
0
 62
     0
100
AcDbFaceRecord
 10
0.0
 20
0.0
 30
0.0
 70
   128
 71
     4
 72
     5
 73
    10
 74
     9
  0
SEQEND
  5
1DE
330
17
100
AcDbEntity
  8
STUFEN
  0
LWPOLYLINE
  5
18
330
4E
100
AcDbEntity
  8
STUFEN
100
AcDbPolyline
 90
        5
 70
     0
 43
0.0
 38
916.6666666666667
 10
862.00038000038
 20
2935.0
 10
861.9995899995899
 20
2145.0
 10
1114.999589997589
 20
2145.0
 10
1115.000379998379
 20
2935.0
 10
862.00038000038
 20
2935.0
  0
POLYLINE
  5
19
330
4E
100
AcDbEntity
  8
STUFEN
100
AcDbPolyFaceMesh
 66
     1
 10
0.0
 20
0.0
 30
0.0
 70
    64
 71
    10
 72
     8
  0
VERTEX
  5
1F2
330
19
100
AcDbEntity
  8
0
100
AcDbVertex
100
AcDbPolyFaceMeshVertex
 10
862.00038000038
 20
2935.0
 30
916.6666666666667
 70
   192
  0
VERTEX
  5
1F3
330
19
100
AcDbEntity
  8
0
100
AcDbVertex
100
AcDbPolyFaceMeshVertex
 10
861.9995899995899
 20
2145.0
 30
916.6666666666667
 70
   192
  0
VERTEX
  5
1F4
330
19
100
AcDbEntity
  8
0
100
AcDbVertex
100
AcDbPolyFaceMeshVertex
 10
1114.999589997589
 20
2145.0
 30
916.6666666666667
 70
   192
  0
VERTEX
  5
1F5
330
19
100
AcDbEntity
  8
0
100
AcDbVertex
100
AcDbPolyFaceMeshVertex
 10
1115.000379998379
 20
2935.0
 30
916.6666666666667
 70
   192
  0
VERTEX
  5
1F6
330
19
100
AcDbEntity
  8
0
100
AcDbVertex
100
AcDbPolyFaceMeshVertex
 10
862.00038000038
 20
2935.0
 30
916.6666666666667
 70
   192
  0
VERTEX
  5
1F7
330
19
100
AcDbEntity
  8
0
100
AcDbVertex
100
AcDbPolyFaceMeshVertex
 10
862.00038000038
 20
2935.0
 30
876.6666666666667
 70
   192
  0
VERTEX
  5
1F8
330
19
100
AcDbEntity
  8
0
100
AcDbVertex
100
AcDbPolyFaceMeshVertex
 10
861.9995899995899
 20
2145.0
 30
876.6666666666667
 70
   192
  0
VERTEX
  5
1F9
330
19
100
AcDbEntity
  8
0
100
AcDbVertex
100
AcDbPolyFaceMeshVertex
 10
1114.999589997589
 20
2145.0
 30
876.6666666666667
 70
   192
  0
VERTEX
  5
1FA
330
19
100
AcDbEntity
  8
0
100
AcDbVertex
100
AcDbPolyFaceMeshVertex
 10
1115.000379998379
 20
2935.0
 30
876.6666666666667
 70
   192
  0
VERTEX
  5
1FB
330
19
100
AcDbEntity
  8
0
100
AcDbVertex
100
AcDbPolyFaceMeshVertex
 10
862.00038000038
 20
2935.0
 30
876.6666666666667
 70
   192
  0
VERTEX
  5
1FC
330
19
100
AcDbEntity
  8
0
 62
     0
100
AcDbFaceRecord
 10
0.0
 20
0.0
 30
0.0
 70
   128
 71
    -5
 72
    -2
 73
    -3
 74
    -3
  0
VERTEX
  5
1FD
330
19
100
AcDbEntity
  8
0
 62
     0
100
AcDbFaceRecord
 10
0.0
 20
0.0
 30
0.0
 70
   128
 71
   -10
 72
    -7
 73
    -8
 74
    -8
  0
VERTEX
  5
1FE
330
19
100
AcDbEntity
  8
0
 62
     0
100
AcDbFaceRecord
 10
0.0
 20
0.0
 30
0.0
 70
   128
 71
    -3
 72
    -4
 73
    -5
 74
    -5
  0
VERTEX
  5
1FF
330
19
100
AcDbEntity
  8
0
 62
     0
100
AcDbFaceRecord
 10
0.0
 20
0.0
 30
0.0
 70
   128
 71
    -8
 72
    -9
 73
   -10
 74
   -10
  0
VERTEX
  5
200
330
19
100
AcDbEntity
  8
0
 62
     0
100
AcDbFaceRecord
 10
0.0
 20
0.0
 30
0.0
 70
   128
 71
     1
 72
     2
 73
     7
 74
     6
  0
VERTEX
  5
201
330
19
100
AcDbEntity
  8
0
 62
     0
100
AcDbFaceRecord
 10
0.0
 20
0.0
 30
0.0
 70
   128
 71
     2
 72
     3
 73
     8
 74
     7
  0
VERTEX
  5
202
330
19
100
AcDbEntity
  8
0
 62
     0
100
AcDbFaceRecord
 10
0.0
 20
0.0
 30
0.0
 70
   128
 71
     3
 72
     4
 73
     9
 74
     8
  0
VERTEX
  5
203
330
19
100
AcDbEntity
  8
0
 62
     0
100
AcDbFaceRecord
 10
0.0
 20
0.0
 30
0.0
 70
   128
 71
     4
 72
     5
 73
    10
 74
     9
  0
SEQEND
  5
1F1
330
19
100
AcDbEntity
  8
STUFEN
  0
LWPOLYLINE
  5
1A
330
4E
100
AcDbEntity
  8
STUFEN
100
AcDbPolyline
 90
        5
 70
     0
 43
0.0
 38
1100.0
 10
1085.00038000038
 20
2935.0
 10
1084.99958999959
 20
2145.0
 10
1337.999589997589
 20
2145.0
 10
1338.000379998379
 20
2935.0
 10
1085.00038000038
 20
2935.0
  0
POLYLINE
  5
1B
330
4E
100
AcDbEntity
  8
STUFEN
100
AcDbPolyFaceMesh
 66
     1
 10
0.0
 20
0.0
 30
0.0
 70
    64
 71
    10
 72
     8
  0
VERTEX
  5
205
330
1B
100
AcDbEntity
  8
0
100
AcDbVertex
100
AcDbPolyFaceMeshVertex
 10
1085.00038000038
 20
2935.0
 30
1100.0
 70
   192
  0
VERTEX
  5
206
330
1B
100
AcDbEntity
  8
0
100
AcDbVertex
100
AcDbPolyFaceMeshVertex
 10
1084.99958999959
 20
2145.0
 30
1100.0
 70
   192
  0
VERTEX
  5
207
330
1B
100
AcDbEntity
  8
0
100
AcDbVertex
100
AcDbPolyFaceMeshVertex
 10
1337.999589997589
 20
2145.0
 30
1100.0
 70
   192
  0
VERTEX
  5
208
330
1B
100
AcDbEntity
  8
0
100
AcDbVertex
100
AcDbPolyFaceMeshVertex
 10
1338.000379998379
 20
2935.0
 30
1100.0
 70
   192
  0
VERTEX
  5
209
330
1B
100
AcDbEntity
  8
0
100
AcDbVertex
100
AcDbPolyFaceMeshVertex
 10
1085.00038000038
 20
2935.0
 30
1100.0
 70
   192
  0
VERTEX
  5
20A
330
1B
100
AcDbEntity
  8
0
100
AcDbVertex
100
AcDbPolyFaceMeshVertex
 10
1085.00038000038
 20
2935.0
 30
1060.0
 70
   192
  0
VERTEX
  5
20B
330
1B
100
AcDbEntity
  8
0
100
AcDbVertex
100
AcDbPolyFaceMeshVertex
 10
1084.99958999959
 20
2145.0
 30
1060.0
 70
   192
  0
VERTEX
  5
20C
330
1B
100
AcDbEntity
  8
0
100
AcDbVertex
100
AcDbPolyFaceMeshVertex
 10
1337.999589997589
 20
2145.0
 30
1060.0
 70
   192
  0
VERTEX
  5
20D
330
1B
100
AcDbEntity
  8
0
100
AcDbVertex
100
AcDbPolyFaceMeshVertex
 10
1338.000379998379
 20
2935.0
 30
1060.0
 70
   192
  0
VERTEX
  5
20E
330
1B
100
AcDbEntity
  8
0
100
AcDbVertex
100
AcDbPolyFaceMeshVertex
 10
1085.00038000038
 20
2935.0
 30
1060.0
 70
   192
  0
VERTEX
  5
20F
330
1B
100
AcDbEntity
  8
0
 62
     0
100
AcDbFaceRecord
 10
0.0
 20
0.0
 30
0.0
 70
   128
 71
    -5
 72
    -2
 73
    -3
 74
    -3
  0
VERTEX
  5
210
330
1B
100
AcDbEntity
  8
0
 62
     0
100
AcDbFaceRecord
 10
0.0
 20
0.0
 30
0.0
 70
   128
 71
   -10
 72
    -7
 73
    -8
 74
    -8
  0
VERTEX
  5
211
330
1B
100
AcDbEntity
  8
0
 62
     0
100
AcDbFaceRecord
 10
0.0
 20
0.0
 30
0.0
 70
   128
 71
    -3
 72
    -4
 73
    -5
 74
    -5
  0
VERTEX
  5
212
330
1B
100
AcDbEntity
  8
0
 62
     0
100
AcDbFaceRecord
 10
0.0
 20
0.0
 30
0.0
 70
   128
 71
    -8
 72
    -9
 73
   -10
 74
   -10
  0
VERTEX
  5
213
330
1B
100
AcDbEntity
  8
0
 62
     0
100
AcDbFaceRecord
 10
0.0
 20
0.0
 30
0.0
 70
   128
 71
     1
 72
     2
 73
     7
 74
     6
  0
VERTEX
  5
214
330
1B
100
AcDbEntity
  8
0
 62
     0
100
AcDbFaceRecord
 10
0.0
 20
0.0
 30
0.0
 70
   128
 71
     2
 72
     3
 73
     8
 74
     7
  0
VERTEX
  5
215
330
1B
100
AcDbEntity
  8
0
 62
     0
100
AcDbFaceRecord
 10
0.0
 20
0.0
 30
0.0
 70
   128
 71
     3
 72
     4
 73
     9
 74
     8
  0
VERTEX
  5
216
330
1B
100
AcDbEntity
  8
0
 62
     0
100
AcDbFaceRecord
 10
0.0
 20
0.0
 30
0.0
 70
   128
 71
     4
 72
     5
 73
    10
 74
     9
  0
SEQEND
  5
204
330
1B
100
AcDbEntity
  8
STUFEN
  0
LWPOLYLINE
  5
1C
330
4E
100
AcDbEntity
  8
STUFEN
100
AcDbPolyline
 90
        5
 70
     0
 43
0.0
 38
1283.333333333334
 10
1308.00038000038
 20
2935.0
 10
1307.99958999959
 20
2145.0
 10
1560.999589997589
 20
2145.0
 10
1561.000379998379
 20
2935.0
 10
1308.00038000038
 20
2935.0
  0
POLYLINE
  5
1D
330
4E
100
AcDbEntity
  8
STUFEN
100
AcDbPolyFaceMesh
 66
     1
 10
0.0
 20
0.0
 30
0.0
 70
    64
 71
    10
 72
     8
  0
VERTEX
  5
218
330
1D
100
AcDbEntity
  8
0
100
AcDbVertex
100
AcDbPolyFaceMeshVertex
 10
1308.00038000038
 20
2935.0
 30
1283.333333333334
 70
   192
  0
VERTEX
  5
219
330
1D
100
AcDbEntity
  8
0
100
AcDbVertex
100
AcDbPolyFaceMeshVertex
 10
1307.99958999959
 20
2145.0
 30
1283.333333333334
 70
   192
  0
VERTEX
  5
21A
330
1D
100
AcDbEntity
  8
0
100
AcDbVertex
100
AcDbPolyFaceMeshVertex
 10
1560.999589997589
 20
2145.0
 30
1283.333333333334
 70
   192
  0
VERTEX
  5
21B
330
1D
100
AcDbEntity
  8
0
100
AcDbVertex
100
AcDbPolyFaceMeshVertex
 10
1561.000379998379
 20
2935.0
 30
1283.333333333334
 70
   192
  0
VERTEX
  5
21C
330
1D
100
AcDbEntity
  8
0
100
AcDbVertex
100
AcDbPolyFaceMeshVertex
 10
1308.00038000038
 20
2935.0
 30
1283.333333333334
 70
   192
  0
VERTEX
  5
21D
330
1D
100
AcDbEntity
  8
0
100
AcDbVertex
100
AcDbPolyFaceMeshVertex
 10
1308.00038000038
 20
2935.0
 30
1243.333333333334
 70
   192
  0
VERTEX
  5
21E
330
1D
100
AcDbEntity
  8
0
100
AcDbVertex
100
AcDbPolyFaceMeshVertex
 10
1307.99958999959
 20
2145.0
 30
1243.333333333334
 70
   192
  0
VERTEX
  5
21F
330
1D
100
AcDbEntity
  8
0
100
AcDbVertex
100
AcDbPolyFaceMeshVertex
 10
1560.999589997589
 20
2145.0
 30
1243.333333333334
 70
   192
  0
VERTEX
  5
220
330
1D
100
AcDbEntity
  8
0
100
AcDbVertex
100
AcDbPolyFaceMeshVertex
 10
1561.000379998379
 20
2935.0
 30
1243.333333333334
 70
   192
  0
VERTEX
  5
221
330
1D
100
AcDbEntity
  8
0
100
AcDbVertex
100
AcDbPolyFaceMeshVertex
 10
1308.00038000038
 20
2935.0
 30
1243.333333333334
 70
   192
  0
VERTEX
  5
222
330
1D
100
AcDbEntity
  8
0
 62
     0
100
AcDbFaceRecord
 10
0.0
 20
0.0
 30
0.0
 70
   128
 71
    -5
 72
    -2
 73
    -3
 74
    -3
  0
VERTEX
  5
223
330
1D
100
AcDbEntity
  8
0
 62
     0
100
AcDbFaceRecord
 10
0.0
 20
0.0
 30
0.0
 70
   128
 71
   -10
 72
    -7
 73
    -8
 74
    -8
  0
VERTEX
  5
224
330
1D
100
AcDbEntity
  8
0
 62
     0
100
AcDbFaceRecord
 10
0.0
 20
0.0
 30
0.0
 70
   128
 71
    -3
 72
    -4
 73
    -5
 74
    -5
  0
VERTEX
  5
225
330
1D
100
AcDbEntity
  8
0
 62
     0
100
AcDbFaceRecord
 10
0.0
 20
0.0
 30
0.0
 70
   128
 71
    -8
 72
    -9
 73
   -10
 74
   -10
  0
VERTEX
  5
226
330
1D
100
AcDbEntity
  8
0
 62
     0
100
AcDbFaceRecord
 10
0.0
 20
0.0
 30
0.0
 70
   128
 71
     1
 72
     2
 73
     7
 74
     6
  0
VERTEX
  5
227
330
1D
100
AcDbEntity
  8
0
 62
     0
100
AcDbFaceRecord
 10
0.0
 20
0.0
 30
0.0
 70
   128
 71
     2
 72
     3
 73
     8
 74
     7
  0
VERTEX
  5
228
330
1D
100
AcDbEntity
  8
0
 62
     0
100
AcDbFaceRecord
 10
0.0
 20
0.0
 30
0.0
 70
   128
 71
     3
 72
     4
 73
     9
 74
     8
  0
VERTEX
  5
229
330
1D
100
AcDbEntity
  8
0
 62
     0
100
AcDbFaceRecord
 10
0.0
 20
0.0
 30
0.0
 70
   128
 71
     4
 72
     5
 73
    10
 74
     9
  0
SEQEND
  5
217
330
1D
100
AcDbEntity
  8
STUFEN
  0
LWPOLYLINE
  5
1E
330
4E
100
AcDbEntity
  8
STUFEN
100
AcDbPolyline
 90
        5
 70
     0
 43
0.0
 38
1466.666666666667
 10
1531.00038000038
 20
2935.0
 10
1530.99958999959
 20
2145.0
 10
1783.999589997589
 20
2145.0
 10
1784.000379998379
 20
2935.0
 10
1531.00038000038
 20
2935.0
  0
POLYLINE
  5
1F
330
4E
100
AcDbEntity
  8
STUFEN
100
AcDbPolyFaceMesh
 66
     1
 10
0.0
 20
0.0
 30
0.0
 70
    64
 71
    10
 72
     8
  0
VERTEX
  5
22B
330
1F
100
AcDbEntity
  8
0
100
AcDbVertex
100
AcDbPolyFaceMeshVertex
 10
1531.00038000038
 20
2935.0
 30
1466.666666666667
 70
   192
  0
VERTEX
  5
22C
330
1F
100
AcDbEntity
  8
0
100
AcDbVertex
100
AcDbPolyFaceMeshVertex
 10
1530.99958999959
 20
2145.0
 30
1466.666666666667
 70
   192
  0
VERTEX
  5
22D
330
1F
100
AcDbEntity
  8
0
100
AcDbVertex
100
AcDbPolyFaceMeshVertex
 10
1783.999589997589
 20
2145.0
 30
1466.666666666667
 70
   192
  0
VERTEX
  5
22E
330
1F
100
AcDbEntity
  8
0
100
AcDbVertex
100
AcDbPolyFaceMeshVertex
 10
1784.000379998379
 20
2935.0
 30
1466.666666666667
 70
   192
  0
VERTEX
  5
22F
330
1F
100
AcDbEntity
  8
0
100
AcDbVertex
100
AcDbPolyFaceMeshVertex
 10
1531.00038000038
 20
2935.0
 30
1466.666666666667
 70
   192
  0
VERTEX
  5
230
330
1F
100
AcDbEntity
  8
0
100
AcDbVertex
100
AcDbPolyFaceMeshVertex
 10
1531.00038000038
 20
2935.0
 30
1426.666666666667
 70
   192
  0
VERTEX
  5
231
330
1F
100
AcDbEntity
  8
0
100
AcDbVertex
100
AcDbPolyFaceMeshVertex
 10
1530.99958999959
 20
2145.0
 30
1426.666666666667
 70
   192
  0
VERTEX
  5
232
330
1F
100
AcDbEntity
  8
0
100
AcDbVertex
100
AcDbPolyFaceMeshVertex
 10
1783.999589997589
 20
2145.0
 30
1426.666666666667
 70
   192
  0
VERTEX
  5
233
330
1F
100
AcDbEntity
  8
0
100
AcDbVertex
100
AcDbPolyFaceMeshVertex
 10
1784.000379998379
 20
2935.0
 30
1426.666666666667
 70
   192
  0
VERTEX
  5
234
330
1F
100
AcDbEntity
  8
0
100
AcDbVertex
100
AcDbPolyFaceMeshVertex
 10
1531.00038000038
 20
2935.0
 30
1426.666666666667
 70
   192
  0
VERTEX
  5
235
330
1F
100
AcDbEntity
  8
0
 62
     0
100
AcDbFaceRecord
 10
0.0
 20
0.0
 30
0.0
 70
   128
 71
    -5
 72
    -2
 73
    -3
 74
    -3
  0
VERTEX
  5
236
330
1F
100
AcDbEntity
  8
0
 62
     0
100
AcDbFaceRecord
 10
0.0
 20
0.0
 30
0.0
 70
   128
 71
   -10
 72
    -7
 73
    -8
 74
    -8
  0
VERTEX
  5
237
330
1F
100
AcDbEntity
  8
0
 62
     0
100
AcDbFaceRecord
 10
0.0
 20
0.0
 30
0.0
 70
   128
 71
    -3
 72
    -4
 73
    -5
 74
    -5
  0
VERTEX
  5
238
330
1F
100
AcDbEntity
  8
0
 62
     0
100
AcDbFaceRecord
 10
0.0
 20
0.0
 30
0.0
 70
   128
 71
    -8
 72
    -9
 73
   -10
 74
   -10
  0
VERTEX
  5
239
330
1F
100
AcDbEntity
  8
0
 62
     0
100
AcDbFaceRecord
 10
0.0
 20
0.0
 30
0.0
 70
   128
 71
     1
 72
     2
 73
     7
 74
     6
  0
VERTEX
  5
23A
330
1F
100
AcDbEntity
  8
0
 62
     0
100
AcDbFaceRecord
 10
0.0
 20
0.0
 30
0.0
 70
   128
 71
     2
 72
     3
 73
     8
 74
     7
  0
VERTEX
  5
23B
330
1F
100
AcDbEntity
  8
0
 62
     0
100
AcDbFaceRecord
 10
0.0
 20
0.0
 30
0.0
 70
   128
 71
     3
 72
     4
 73
     9
 74
     8
  0
VERTEX
  5
23C
330
1F
100
AcDbEntity
  8
0
 62
     0
100
AcDbFaceRecord
 10
0.0
 20
0.0
 30
0.0
 70
   128
 71
     4
 72
     5
 73
    10
 74
     9
  0
SEQEND
  5
22A
330
1F
100
AcDbEntity
  8
STUFEN
  0
LWPOLYLINE
  5
20
330
4E
100
AcDbEntity
  8
STUFEN
100
AcDbPolyline
 90
        5
 70
     0
 43
0.0
 38
1650.0
 10
1754.00038000038
 20
2935.0
 10
1753.99958999959
 20
2145.0
 10
2006.999589997589
 20
2145.0
 10
2007.000379998379
 20
2935.0
 10
1754.00038000038
 20
2935.0
  0
POLYLINE
  5
21
330
4E
100
AcDbEntity
  8
STUFEN
100
AcDbPolyFaceMesh
 66
     1
 10
0.0
 20
0.0
 30
0.0
 70
    64
 71
    10
 72
     8
  0
VERTEX
  5
23E
330
21
100
AcDbEntity
  8
0
100
AcDbVertex
100
AcDbPolyFaceMeshVertex
 10
1754.00038000038
 20
2935.0
 30
1650.0
 70
   192
  0
VERTEX
  5
23F
330
21
100
AcDbEntity
  8
0
100
AcDbVertex
100
AcDbPolyFaceMeshVertex
 10
1753.99958999959
 20
2145.0
 30
1650.0
 70
   192
  0
VERTEX
  5
240
330
21
100
AcDbEntity
  8
0
100
AcDbVertex
100
AcDbPolyFaceMeshVertex
 10
2006.999589997589
 20
2145.0
 30
1650.0
 70
   192
  0
VERTEX
  5
241
330
21
100
AcDbEntity
  8
0
100
AcDbVertex
100
AcDbPolyFaceMeshVertex
 10
2007.000379998379
 20
2935.0
 30
1650.0
 70
   192
  0
VERTEX
  5
242
330
21
100
AcDbEntity
  8
0
100
AcDbVertex
100
AcDbPolyFaceMeshVertex
 10
1754.00038000038
 20
2935.0
 30
1650.0
 70
   192
  0
VERTEX
  5
243
330
21
100
AcDbEntity
  8
0
100
AcDbVertex
100
AcDbPolyFaceMeshVertex
 10
1754.00038000038
 20
2935.0
 30
1610.0
 70
   192
  0
VERTEX
  5
244
330
21
100
AcDbEntity
  8
0
100
AcDbVertex
100
AcDbPolyFaceMeshVertex
 10
1753.99958999959
 20
2145.0
 30
1610.0
 70
   192
  0
VERTEX
  5
245
330
21
100
AcDbEntity
  8
0
100
AcDbVertex
100
AcDbPolyFaceMeshVertex
 10
2006.999589997589
 20
2145.0
 30
1610.0
 70
   192
  0
VERTEX
  5
246
330
21
100
AcDbEntity
  8
0
100
AcDbVertex
100
AcDbPolyFaceMeshVertex
 10
2007.000379998379
 20
2935.0
 30
1610.0
 70
   192
  0
VERTEX
  5
247
330
21
100
AcDbEntity
  8
0
100
AcDbVertex
100
AcDbPolyFaceMeshVertex
 10
1754.00038000038
 20
2935.0
 30
1610.0
 70
   192
  0
VERTEX
  5
248
330
21
100
AcDbEntity
  8
0
 62
     0
100
AcDbFaceRecord
 10
0.0
 20
0.0
 30
0.0
 70
   128
 71
    -5
 72
    -2
 73
    -3
 74
    -3
  0
VERTEX
  5
249
330
21
100
AcDbEntity
  8
0
 62
     0
100
AcDbFaceRecord
 10
0.0
 20
0.0
 30
0.0
 70
   128
 71
   -10
 72
    -7
 73
    -8
 74
    -8
  0
VERTEX
  5
24A
330
21
100
AcDbEntity
  8
0
 62
     0
100
AcDbFaceRecord
 10
0.0
 20
0.0
 30
0.0
 70
   128
 71
    -3
 72
    -4
 73
    -5
 74
    -5
  0
VERTEX
  5
24B
330
21
100
AcDbEntity
  8
0
 62
     0
100
AcDbFaceRecord
 10
0.0
 20
0.0
 30
0.0
 70
   128
 71
    -8
 72
    -9
 73
   -10
 74
   -10
  0
VERTEX
  5
24C
330
21
100
AcDbEntity
  8
0
 62
     0
100
AcDbFaceRecord
 10
0.0
 20
0.0
 30
0.0
 70
   128
 71
     1
 72
     2
 73
     7
 74
     6
  0
VERTEX
  5
24D
330
21
100
AcDbEntity
  8
0
 62
     0
100
AcDbFaceRecord
 10
0.0
 20
0.0
 30
0.0
 70
   128
 71
     2
 72
     3
 73
     8
 74
     7
  0
VERTEX
  5
24E
330
21
100
AcDbEntity
  8
0
 62
     0
100
AcDbFaceRecord
 10
0.0
 20
0.0
 30
0.0
 70
   128
 71
     3
 72
     4
 73
     9
 74
     8
  0
VERTEX
  5
24F
330
21
100
AcDbEntity
  8
0
 62
     0
100
AcDbFaceRecord
 10
0.0
 20
0.0
 30
0.0
 70
   128
 71
     4
 72
     5
 73
    10
 74
     9
  0
SEQEND
  5
23D
330
21
100
AcDbEntity
  8
STUFEN
  0
LWPOLYLINE
  5
22
330
4E
100
AcDbEntity
  8
STUFEN
100
AcDbPolyline
 90
        5
 70
     0
 43
0.0
 38
1833.333333333334
 10
1977.00038000038
 20
2935.0
 10
1976.99958999959
 20
2145.0
 10
2229.999589997589
 20
2145.0
 10
2230.000379998379
 20
2935.0
 10
1977.00038000038
 20
2935.0
  0
POLYLINE
  5
23
330
4E
100
AcDbEntity
  8
STUFEN
100
AcDbPolyFaceMesh
 66
     1
 10
0.0
 20
0.0
 30
0.0
 70
    64
 71
    10
 72
     8
  0
VERTEX
  5
251
330
23
100
AcDbEntity
  8
0
100
AcDbVertex
100
AcDbPolyFaceMeshVertex
 10
1977.00038000038
 20
2935.0
 30
1833.333333333334
 70
   192
  0
VERTEX
  5
252
330
23
100
AcDbEntity
  8
0
100
AcDbVertex
100
AcDbPolyFaceMeshVertex
 10
1976.99958999959
 20
2145.0
 30
1833.333333333334
 70
   192
  0
VERTEX
  5
253
330
23
100
AcDbEntity
  8
0
100
AcDbVertex
100
AcDbPolyFaceMeshVertex
 10
2229.999589997589
 20
2145.0
 30
1833.333333333334
 70
   192
  0
VERTEX
  5
254
330
23
100
AcDbEntity
  8
0
100
AcDbVertex
100
AcDbPolyFaceMeshVertex
 10
2230.000379998379
 20
2935.0
 30
1833.333333333334
 70
   192
  0
VERTEX
  5
255
330
23
100
AcDbEntity
  8
0
100
AcDbVertex
100
AcDbPolyFaceMeshVertex
 10
1977.00038000038
 20
2935.0
 30
1833.333333333334
 70
   192
  0
VERTEX
  5
256
330
23
100
AcDbEntity
  8
0
100
AcDbVertex
100
AcDbPolyFaceMeshVertex
 10
1977.00038000038
 20
2935.0
 30
1793.333333333334
 70
   192
  0
VERTEX
  5
257
330
23
100
AcDbEntity
  8
0
100
AcDbVertex
100
AcDbPolyFaceMeshVertex
 10
1976.99958999959
 20
2145.0
 30
1793.333333333334
 70
   192
  0
VERTEX
  5
258
330
23
100
AcDbEntity
  8
0
100
AcDbVertex
100
AcDbPolyFaceMeshVertex
 10
2229.999589997589
 20
2145.0
 30
1793.333333333334
 70
   192
  0
VERTEX
  5
259
330
23
100
AcDbEntity
  8
0
100
AcDbVertex
100
AcDbPolyFaceMeshVertex
 10
2230.000379998379
 20
2935.0
 30
1793.333333333334
 70
   192
  0
VERTEX
  5
25A
330
23
100
AcDbEntity
  8
0
100
AcDbVertex
100
AcDbPolyFaceMeshVertex
 10
1977.00038000038
 20
2935.0
 30
1793.333333333334
 70
   192
  0
VERTEX
  5
25B
330
23
100
AcDbEntity
  8
0
 62
     0
100
AcDbFaceRecord
 10
0.0
 20
0.0
 30
0.0
 70
   128
 71
    -5
 72
    -2
 73
    -3
 74
    -3
  0
VERTEX
  5
25C
330
23
100
AcDbEntity
  8
0
 62
     0
100
AcDbFaceRecord
 10
0.0
 20
0.0
 30
0.0
 70
   128
 71
   -10
 72
    -7
 73
    -8
 74
    -8
  0
VERTEX
  5
25D
330
23
100
AcDbEntity
  8
0
 62
     0
100
AcDbFaceRecord
 10
0.0
 20
0.0
 30
0.0
 70
   128
 71
    -3
 72
    -4
 73
    -5
 74
    -5
  0
VERTEX
  5
25E
330
23
100
AcDbEntity
  8
0
 62
     0
100
AcDbFaceRecord
 10
0.0
 20
0.0
 30
0.0
 70
   128
 71
    -8
 72
    -9
 73
   -10
 74
   -10
  0
VERTEX
  5
25F
330
23
100
AcDbEntity
  8
0
 62
     0
100
AcDbFaceRecord
 10
0.0
 20
0.0
 30
0.0
 70
   128
 71
     1
 72
     2
 73
     7
 74
     6
  0
VERTEX
  5
260
330
23
100
AcDbEntity
  8
0
 62
     0
100
AcDbFaceRecord
 10
0.0
 20
0.0
 30
0.0
 70
   128
 71
     2
 72
     3
 73
     8
 74
     7
  0
VERTEX
  5
261
330
23
100
AcDbEntity
  8
0
 62
     0
100
AcDbFaceRecord
 10
0.0
 20
0.0
 30
0.0
 70
   128
 71
     3
 72
     4
 73
     9
 74
     8
  0
VERTEX
  5
262
330
23
100
AcDbEntity
  8
0
 62
     0
100
AcDbFaceRecord
 10
0.0
 20
0.0
 30
0.0
 70
   128
 71
     4
 72
     5
 73
    10
 74
     9
  0
SEQEND
  5
250
330
23
100
AcDbEntity
  8
STUFEN
  0
LWPOLYLINE
  5
24
330
4E
100
AcDbEntity
  8
STUFEN
100
AcDbPolyline
 90
        5
 70
     0
 43
0.0
 38
2016.666666666667
 10
2200.00038000038
 20
2935.0
 10
2199.99958999959
 20
2145.0
 10
2452.999589997589
 20
2145.0
 10
2453.000379998379
 20
2935.0
 10
2200.00038000038
 20
2935.0
  0
POLYLINE
  5
25
330
4E
100
AcDbEntity
  8
STUFEN
100
AcDbPolyFaceMesh
 66
     1
 10
0.0
 20
0.0
 30
0.0
 70
    64
 71
    10
 72
     8
  0
VERTEX
  5
264
330
25
100
AcDbEntity
  8
0
100
AcDbVertex
100
AcDbPolyFaceMeshVertex
 10
2200.00038000038
 20
2935.0
 30
2016.666666666667
 70
   192
  0
VERTEX
  5
265
330
25
100
AcDbEntity
  8
0
100
AcDbVertex
100
AcDbPolyFaceMeshVertex
 10
2199.99958999959
 20
2145.0
 30
2016.666666666667
 70
   192
  0
VERTEX
  5
266
330
25
100
AcDbEntity
  8
0
100
AcDbVertex
100
AcDbPolyFaceMeshVertex
 10
2452.999589997589
 20
2145.0
 30
2016.666666666667
 70
   192
  0
VERTEX
  5
267
330
25
100
AcDbEntity
  8
0
100
AcDbVertex
100
AcDbPolyFaceMeshVertex
 10
2453.000379998379
 20
2935.0
 30
2016.666666666667
 70
   192
  0
VERTEX
  5
268
330
25
100
AcDbEntity
  8
0
100
AcDbVertex
100
AcDbPolyFaceMeshVertex
 10
2200.00038000038
 20
2935.0
 30
2016.666666666667
 70
   192
  0
VERTEX
  5
269
330
25
100
AcDbEntity
  8
0
100
AcDbVertex
100
AcDbPolyFaceMeshVertex
 10
2200.00038000038
 20
2935.0
 30
1976.666666666667
 70
   192
  0
VERTEX
  5
26A
330
25
100
AcDbEntity
  8
0
100
AcDbVertex
100
AcDbPolyFaceMeshVertex
 10
2199.99958999959
 20
2145.0
 30
1976.666666666667
 70
   192
  0
VERTEX
  5
26B
330
25
100
AcDbEntity
  8
0
100
AcDbVertex
100
AcDbPolyFaceMeshVertex
 10
2452.999589997589
 20
2145.0
 30
1976.666666666667
 70
   192
  0
VERTEX
  5
26C
330
25
100
AcDbEntity
  8
0
100
AcDbVertex
100
AcDbPolyFaceMeshVertex
 10
2453.000379998379
 20
2935.0
 30
1976.666666666667
 70
   192
  0
VERTEX
  5
26D
330
25
100
AcDbEntity
  8
0
100
AcDbVertex
100
AcDbPolyFaceMeshVertex
 10
2200.00038000038
 20
2935.0
 30
1976.666666666667
 70
   192
  0
VERTEX
  5
26E
330
25
100
AcDbEntity
  8
0
 62
     0
100
AcDbFaceRecord
 10
0.0
 20
0.0
 30
0.0
 70
   128
 71
    -5
 72
    -2
 73
    -3
 74
    -3
  0
VERTEX
  5
26F
330
25
100
AcDbEntity
  8
0
 62
     0
100
AcDbFaceRecord
 10
0.0
 20
0.0
 30
0.0
 70
   128
 71
   -10
 72
    -7
 73
    -8
 74
    -8
  0
VERTEX
  5
270
330
25
100
AcDbEntity
  8
0
 62
     0
100
AcDbFaceRecord
 10
0.0
 20
0.0
 30
0.0
 70
   128
 71
    -3
 72
    -4
 73
    -5
 74
    -5
  0
VERTEX
  5
271
330
25
100
AcDbEntity
  8
0
 62
     0
100
AcDbFaceRecord
 10
0.0
 20
0.0
 30
0.0
 70
   128
 71
    -8
 72
    -9
 73
   -10
 74
   -10
  0
VERTEX
  5
272
330
25
100
AcDbEntity
  8
0
 62
     0
100
AcDbFaceRecord
 10
0.0
 20
0.0
 30
0.0
 70
   128
 71
     1
 72
     2
 73
     7
 74
     6
  0
VERTEX
  5
273
330
25
100
AcDbEntity
  8
0
 62
     0
100
AcDbFaceRecord
 10
0.0
 20
0.0
 30
0.0
 70
   128
 71
     2
 72
     3
 73
     8
 74
     7
  0
VERTEX
  5
274
330
25
100
AcDbEntity
  8
0
 62
     0
100
AcDbFaceRecord
 10
0.0
 20
0.0
 30
0.0
 70
   128
 71
     3
 72
     4
 73
     9
 74
     8
  0
VERTEX
  5
275
330
25
100
AcDbEntity
  8
0
 62
     0
100
AcDbFaceRecord
 10
0.0
 20
0.0
 30
0.0
 70
   128
 71
     4
 72
     5
 73
    10
 74
     9
  0
SEQEND
  5
263
330
25
100
AcDbEntity
  8
STUFEN
  0
LWPOLYLINE
  5
26
330
4E
100
AcDbEntity
  8
STUFEN
100
AcDbPolyline
 90
        5
 70
     0
 43
0.0
 38
2200.0
 10
2423.00038000038
 20
2935.0
 10
2422.99958999959
 20
2145.0
 10
2675.999589997589
 20
2145.0
 10
2676.000379998379
 20
2935.0
 10
2423.00038000038
 20
2935.0
  0
POLYLINE
  5
27
330
4E
100
AcDbEntity
  8
STUFEN
100
AcDbPolyFaceMesh
 66
     1
 10
0.0
 20
0.0
 30
0.0
 70
    64
 71
    10
 72
     8
  0
VERTEX
  5
277
330
27
100
AcDbEntity
  8
0
100
AcDbVertex
100
AcDbPolyFaceMeshVertex
 10
2423.00038000038
 20
2935.0
 30
2200.0
 70
   192
  0
VERTEX
  5
278
330
27
100
AcDbEntity
  8
0
100
AcDbVertex
100
AcDbPolyFaceMeshVertex
 10
2422.99958999959
 20
2145.0
 30
2200.0
 70
   192
  0
VERTEX
  5
279
330
27
100
AcDbEntity
  8
0
100
AcDbVertex
100
AcDbPolyFaceMeshVertex
 10
2675.999589997589
 20
2145.0
 30
2200.0
 70
   192
  0
VERTEX
  5
27A
330
27
100
AcDbEntity
  8
0
100
AcDbVertex
100
AcDbPolyFaceMeshVertex
 10
2676.000379998379
 20
2935.0
 30
2200.0
 70
   192
  0
VERTEX
  5
27B
330
27
100
AcDbEntity
  8
0
100
AcDbVertex
100
AcDbPolyFaceMeshVertex
 10
2423.00038000038
 20
2935.0
 30
2200.0
 70
   192
  0
VERTEX
  5
27C
330
27
100
AcDbEntity
  8
0
100
AcDbVertex
100
AcDbPolyFaceMeshVertex
 10
2423.00038000038
 20
2935.0
 30
2160.0
 70
   192
  0
VERTEX
  5
27D
330
27
100
AcDbEntity
  8
0
100
AcDbVertex
100
AcDbPolyFaceMeshVertex
 10
2422.99958999959
 20
2145.0
 30
2160.0
 70
   192
  0
VERTEX
  5
27E
330
27
100
AcDbEntity
  8
0
100
AcDbVertex
100
AcDbPolyFaceMeshVertex
 10
2675.999589997589
 20
2145.0
 30
2160.0
 70
   192
  0
VERTEX
  5
27F
330
27
100
AcDbEntity
  8
0
100
AcDbVertex
100
AcDbPolyFaceMeshVertex
 10
2676.000379998379
 20
2935.0
 30
2160.0
 70
   192
  0
VERTEX
  5
280
330
27
100
AcDbEntity
  8
0
100
AcDbVertex
100
AcDbPolyFaceMeshVertex
 10
2423.00038000038
 20
2935.0
 30
2160.0
 70
   192
  0
VERTEX
  5
281
330
27
100
AcDbEntity
  8
0
 62
     0
100
AcDbFaceRecord
 10
0.0
 20
0.0
 30
0.0
 70
   128
 71
    -5
 72
    -2
 73
    -3
 74
    -3
  0
VERTEX
  5
282
330
27
100
AcDbEntity
  8
0
 62
     0
100
AcDbFaceRecord
 10
0.0
 20
0.0
 30
0.0
 70
   128
 71
   -10
 72
    -7
 73
    -8
 74
    -8
  0
VERTEX
  5
283
330
27
100
AcDbEntity
  8
0
 62
     0
100
AcDbFaceRecord
 10
0.0
 20
0.0
 30
0.0
 70
   128
 71
    -3
 72
    -4
 73
    -5
 74
    -5
  0
VERTEX
  5
284
330
27
100
AcDbEntity
  8
0
 62
     0
100
AcDbFaceRecord
 10
0.0
 20
0.0
 30
0.0
 70
   128
 71
    -8
 72
    -9
 73
   -10
 74
   -10
  0
VERTEX
  5
285
330
27
100
AcDbEntity
  8
0
 62
     0
100
AcDbFaceRecord
 10
0.0
 20
0.0
 30
0.0
 70
   128
 71
     1
 72
     2
 73
     7
 74
     6
  0
VERTEX
  5
286
330
27
100
AcDbEntity
  8
0
 62
     0
100
AcDbFaceRecord
 10
0.0
 20
0.0
 30
0.0
 70
   128
 71
     2
 72
     3
 73
     8
 74
     7
  0
VERTEX
  5
287
330
27
100
AcDbEntity
  8
0
 62
     0
100
AcDbFaceRecord
 10
0.0
 20
0.0
 30
0.0
 70
   128
 71
     3
 72
     4
 73
     9
 74
     8
  0
VERTEX
  5
288
330
27
100
AcDbEntity
  8
0
 62
     0
100
AcDbFaceRecord
 10
0.0
 20
0.0
 30
0.0
 70
   128
 71
     4
 72
     5
 73
    10
 74
     9
  0
SEQEND
  5
276
330
27
100
AcDbEntity
  8
STUFEN
  0
LWPOLYLINE
  5
28
330
4E
100
AcDbEntity
  8
STUFEN
100
AcDbPolyline
 90
        5
 70
     0
 43
0.0
 38
2383.333333333334
 10
2646.00038000038
 20
2935.0
 10
2645.99958999959
 20
2145.0
 10
2898.999589997589
 20
2145.0
 10
2899.000379998379
 20
2935.0
 10
2646.00038000038
 20
2935.0
  0
POLYLINE
  5
29
330
4E
100
AcDbEntity
  8
STUFEN
100
AcDbPolyFaceMesh
 66
     1
 10
0.0
 20
0.0
 30
0.0
 70
    64
 71
    10
 72
     8
  0
VERTEX
  5
28A
330
29
100
AcDbEntity
  8
0
100
AcDbVertex
100
AcDbPolyFaceMeshVertex
 10
2646.00038000038
 20
2935.0
 30
2383.333333333334
 70
   192
  0
VERTEX
  5
28B
330
29
100
AcDbEntity
  8
0
100
AcDbVertex
100
AcDbPolyFaceMeshVertex
 10
2645.99958999959
 20
2145.0
 30
2383.333333333334
 70
   192
  0
VERTEX
  5
28C
330
29
100
AcDbEntity
  8
0
100
AcDbVertex
100
AcDbPolyFaceMeshVertex
 10
2898.999589997589
 20
2145.0
 30
2383.333333333334
 70
   192
  0
VERTEX
  5
28D
330
29
100
AcDbEntity
  8
0
100
AcDbVertex
100
AcDbPolyFaceMeshVertex
 10
2899.000379998379
 20
2935.0
 30
2383.333333333334
 70
   192
  0
VERTEX
  5
28E
330
29
100
AcDbEntity
  8
0
100
AcDbVertex
100
AcDbPolyFaceMeshVertex
 10
2646.00038000038
 20
2935.0
 30
2383.333333333334
 70
   192
  0
VERTEX
  5
28F
330
29
100
AcDbEntity
  8
0
100
AcDbVertex
100
AcDbPolyFaceMeshVertex
 10
2646.00038000038
 20
2935.0
 30
2343.333333333334
 70
   192
  0
VERTEX
  5
290
330
29
100
AcDbEntity
  8
0
100
AcDbVertex
100
AcDbPolyFaceMeshVertex
 10
2645.99958999959
 20
2145.0
 30
2343.333333333334
 70
   192
  0
VERTEX
  5
291
330
29
100
AcDbEntity
  8
0
100
AcDbVertex
100
AcDbPolyFaceMeshVertex
 10
2898.999589997589
 20
2145.0
 30
2343.333333333334
 70
   192
  0
VERTEX
  5
292
330
29
100
AcDbEntity
  8
0
100
AcDbVertex
100
AcDbPolyFaceMeshVertex
 10
2899.000379998379
 20
2935.0
 30
2343.333333333334
 70
   192
  0
VERTEX
  5
293
330
29
100
AcDbEntity
  8
0
100
AcDbVertex
100
AcDbPolyFaceMeshVertex
 10
2646.00038000038
 20
2935.0
 30
2343.333333333334
 70
   192
  0
VERTEX
  5
294
330
29
100
AcDbEntity
  8
0
 62
     0
100
AcDbFaceRecord
 10
0.0
 20
0.0
 30
0.0
 70
   128
 71
    -5
 72
    -2
 73
    -3
 74
    -3
  0
VERTEX
  5
295
330
29
100
AcDbEntity
  8
0
 62
     0
100
AcDbFaceRecord
 10
0.0
 20
0.0
 30
0.0
 70
   128
 71
   -10
 72
    -7
 73
    -8
 74
    -8
  0
VERTEX
  5
296
330
29
100
AcDbEntity
  8
0
 62
     0
100
AcDbFaceRecord
 10
0.0
 20
0.0
 30
0.0
 70
   128
 71
    -3
 72
    -4
 73
    -5
 74
    -5
  0
VERTEX
  5
297
330
29
100
AcDbEntity
  8
0
 62
     0
100
AcDbFaceRecord
 10
0.0
 20
0.0
 30
0.0
 70
   128
 71
    -8
 72
    -9
 73
   -10
 74
   -10
  0
VERTEX
  5
298
330
29
100
AcDbEntity
  8
0
 62
     0
100
AcDbFaceRecord
 10
0.0
 20
0.0
 30
0.0
 70
   128
 71
     1
 72
     2
 73
     7
 74
     6
  0
VERTEX
  5
299
330
29
100
AcDbEntity
  8
0
 62
     0
100
AcDbFaceRecord
 10
0.0
 20
0.0
 30
0.0
 70
   128
 71
     2
 72
     3
 73
     8
 74
     7
  0
VERTEX
  5
29A
330
29
100
AcDbEntity
  8
0
 62
     0
100
AcDbFaceRecord
 10
0.0
 20
0.0
 30
0.0
 70
   128
 71
     3
 72
     4
 73
     9
 74
     8
  0
VERTEX
  5
29B
330
29
100
AcDbEntity
  8
0
 62
     0
100
AcDbFaceRecord
 10
0.0
 20
0.0
 30
0.0
 70
   128
 71
     4
 72
     5
 73
    10
 74
     9
  0
SEQEND
  5
289
330
29
100
AcDbEntity
  8
STUFEN
  0
LWPOLYLINE
  5
2A
330
4E
100
AcDbEntity
  8
STUFEN
100
AcDbPolyline
 90
        5
 70
     0
 43
0.0
 38
2566.666666666667
 10
2869.00038000038
 20
2935.0
 10
2868.99958999959
 20
2145.0
 10
3121.999589997589
 20
2145.0
 10
3122.000379998379
 20
2935.0
 10
2869.00038000038
 20
2935.0
  0
POLYLINE
  5
2B
330
4E
100
AcDbEntity
  8
STUFEN
100
AcDbPolyFaceMesh
 66
     1
 10
0.0
 20
0.0
 30
0.0
 70
    64
 71
    10
 72
     8
  0
VERTEX
  5
29D
330
2B
100
AcDbEntity
  8
0
100
AcDbVertex
100
AcDbPolyFaceMeshVertex
 10
2869.00038000038
 20
2935.0
 30
2566.666666666667
 70
   192
  0
VERTEX
  5
29E
330
2B
100
AcDbEntity
  8
0
100
AcDbVertex
100
AcDbPolyFaceMeshVertex
 10
2868.99958999959
 20
2145.0
 30
2566.666666666667
 70
   192
  0
VERTEX
  5
29F
330
2B
100
AcDbEntity
  8
0
100
AcDbVertex
100
AcDbPolyFaceMeshVertex
 10
3121.999589997589
 20
2145.0
 30
2566.666666666667
 70
   192
  0
VERTEX
  5
2A0
330
2B
100
AcDbEntity
  8
0
100
AcDbVertex
100
AcDbPolyFaceMeshVertex
 10
3122.000379998379
 20
2935.0
 30
2566.666666666667
 70
   192
  0
VERTEX
  5
2A1
330
2B
100
AcDbEntity
  8
0
100
AcDbVertex
100
AcDbPolyFaceMeshVertex
 10
2869.00038000038
 20
2935.0
 30
2566.666666666667
 70
   192
  0
VERTEX
  5
2A2
330
2B
100
AcDbEntity
  8
0
100
AcDbVertex
100
AcDbPolyFaceMeshVertex
 10
2869.00038000038
 20
2935.0
 30
2526.666666666667
 70
   192
  0
VERTEX
  5
2A3
330
2B
100
AcDbEntity
  8
0
100
AcDbVertex
100
AcDbPolyFaceMeshVertex
 10
2868.99958999959
 20
2145.0
 30
2526.666666666667
 70
   192
  0
VERTEX
  5
2A4
330
2B
100
AcDbEntity
  8
0
100
AcDbVertex
100
AcDbPolyFaceMeshVertex
 10
3121.999589997589
 20
2145.0
 30
2526.666666666667
 70
   192
  0
VERTEX
  5
2A5
330
2B
100
AcDbEntity
  8
0
100
AcDbVertex
100
AcDbPolyFaceMeshVertex
 10
3122.000379998379
 20
2935.0
 30
2526.666666666667
 70
   192
  0
VERTEX
  5
2A6
330
2B
100
AcDbEntity
  8
0
100
AcDbVertex
100
AcDbPolyFaceMeshVertex
 10
2869.00038000038
 20
2935.0
 30
2526.666666666667
 70
   192
  0
VERTEX
  5
2A7
330
2B
100
AcDbEntity
  8
0
 62
     0
100
AcDbFaceRecord
 10
0.0
 20
0.0
 30
0.0
 70
   128
 71
    -5
 72
    -2
 73
    -3
 74
    -3
  0
VERTEX
  5
2A8
330
2B
100
AcDbEntity
  8
0
 62
     0
100
AcDbFaceRecord
 10
0.0
 20
0.0
 30
0.0
 70
   128
 71
   -10
 72
    -7
 73
    -8
 74
    -8
  0
VERTEX
  5
2A9
330
2B
100
AcDbEntity
  8
0
 62
     0
100
AcDbFaceRecord
 10
0.0
 20
0.0
 30
0.0
 70
   128
 71
    -3
 72
    -4
 73
    -5
 74
    -5
  0
VERTEX
  5
2AA
330
2B
100
AcDbEntity
  8
0
 62
     0
100
AcDbFaceRecord
 10
0.0
 20
0.0
 30
0.0
 70
   128
 71
    -8
 72
    -9
 73
   -10
 74
   -10
  0
VERTEX
  5
2AB
330
2B
100
AcDbEntity
  8
0
 62
     0
100
AcDbFaceRecord
 10
0.0
 20
0.0
 30
0.0
 70
   128
 71
     1
 72
     2
 73
     7
 74
     6
  0
VERTEX
  5
2AC
330
2B
100
AcDbEntity
  8
0
 62
     0
100
AcDbFaceRecord
 10
0.0
 20
0.0
 30
0.0
 70
   128
 71
     2
 72
     3
 73
     8
 74
     7
  0
VERTEX
  5
2AD
330
2B
100
AcDbEntity
  8
0
 62
     0
100
AcDbFaceRecord
 10
0.0
 20
0.0
 30
0.0
 70
   128
 71
     3
 72
     4
 73
     9
 74
     8
  0
VERTEX
  5
2AE
330
2B
100
AcDbEntity
  8
0
 62
     0
100
AcDbFaceRecord
 10
0.0
 20
0.0
 30
0.0
 70
   128
 71
     4
 72
     5
 73
    10
 74
     9
  0
SEQEND
  5
29C
330
2B
100
AcDbEntity
  8
STUFEN
  0
LWPOLYLINE
  5
2C
330
4E
100
AcDbEntity
  8
STUFEN
100
AcDbPolyline
 90
        5
 70
     0
 43
0.0
 38
2750.0
 10
3092.00038000038
 20
2935.0
 10
3091.99958999959
 20
2145.0
 10
3315.0
 20
2145.0
 10
3315.0
 20
2935.0
 10
3092.00038000038
 20
2935.0
  0
POLYLINE
  5
2D
330
4E
100
AcDbEntity
  8
STUFEN
100
AcDbPolyFaceMesh
 66
     1
 10
0.0
 20
0.0
 30
0.0
 70
    64
 71
    10
 72
     8
  0
VERTEX
  5
2B0
330
2D
100
AcDbEntity
  8
0
100
AcDbVertex
100
AcDbPolyFaceMeshVertex
 10
3092.00038000038
 20
2935.0
 30
2750.0
 70
   192
  0
VERTEX
  5
2B1
330
2D
100
AcDbEntity
  8
0
100
AcDbVertex
100
AcDbPolyFaceMeshVertex
 10
3091.99958999959
 20
2145.0
 30
2750.0
 70
   192
  0
VERTEX
  5
2B2
330
2D
100
AcDbEntity
  8
0
100
AcDbVertex
100
AcDbPolyFaceMeshVertex
 10
3315.0
 20
2145.0
 30
2750.0
 70
   192
  0
VERTEX
  5
2B3
330
2D
100
AcDbEntity
  8
0
100
AcDbVertex
100
AcDbPolyFaceMeshVertex
 10
3315.0
 20
2935.0
 30
2750.0
 70
   192
  0
VERTEX
  5
2B4
330
2D
100
AcDbEntity
  8
0
100
AcDbVertex
100
AcDbPolyFaceMeshVertex
 10
3092.00038000038
 20
2935.0
 30
2750.0
 70
   192
  0
VERTEX
  5
2B5
330
2D
100
AcDbEntity
  8
0
100
AcDbVertex
100
AcDbPolyFaceMeshVertex
 10
3092.00038000038
 20
2935.0
 30
2710.0
 70
   192
  0
VERTEX
  5
2B6
330
2D
100
AcDbEntity
  8
0
100
AcDbVertex
100
AcDbPolyFaceMeshVertex
 10
3091.99958999959
 20
2145.0
 30
2710.0
 70
   192
  0
VERTEX
  5
2B7
330
2D
100
AcDbEntity
  8
0
100
AcDbVertex
100
AcDbPolyFaceMeshVertex
 10
3315.0
 20
2145.0
 30
2710.0
 70
   192
  0
VERTEX
  5
2B8
330
2D
100
AcDbEntity
  8
0
100
AcDbVertex
100
AcDbPolyFaceMeshVertex
 10
3315.0
 20
2935.0
 30
2710.0
 70
   192
  0
VERTEX
  5
2B9
330
2D
100
AcDbEntity
  8
0
100
AcDbVertex
100
AcDbPolyFaceMeshVertex
 10
3092.00038000038
 20
2935.0
 30
2710.0
 70
   192
  0
VERTEX
  5
2BA
330
2D
100
AcDbEntity
  8
0
 62
     0
100
AcDbFaceRecord
 10
0.0
 20
0.0
 30
0.0
 70
   128
 71
    -5
 72
    -2
 73
    -3
 74
    -3
  0
VERTEX
  5
2BB
330
2D
100
AcDbEntity
  8
0
 62
     0
100
AcDbFaceRecord
 10
0.0
 20
0.0
 30
0.0
 70
   128
 71
   -10
 72
    -7
 73
    -8
 74
    -8
  0
VERTEX
  5
2BC
330
2D
100
AcDbEntity
  8
0
 62
     0
100
AcDbFaceRecord
 10
0.0
 20
0.0
 30
0.0
 70
   128
 71
    -3
 72
    -4
 73
    -5
 74
    -5
  0
VERTEX
  5
2BD
330
2D
100
AcDbEntity
  8
0
 62
     0
100
AcDbFaceRecord
 10
0.0
 20
0.0
 30
0.0
 70
   128
 71
    -8
 72
    -9
 73
   -10
 74
   -10
  0
VERTEX
  5
2BE
330
2D
100
AcDbEntity
  8
0
 62
     0
100
AcDbFaceRecord
 10
0.0
 20
0.0
 30
0.0
 70
   128
 71
     1
 72
     2
 73
     7
 74
     6
  0
VERTEX
  5
2BF
330
2D
100
AcDbEntity
  8
0
 62
     0
100
AcDbFaceRecord
 10
0.0
 20
0.0
 30
0.0
 70
   128
 71
     2
 72
     3
 73
     8
 74
     7
  0
VERTEX
  5
2C0
330
2D
100
AcDbEntity
  8
0
 62
     0
100
AcDbFaceRecord
 10
0.0
 20
0.0
 30
0.0
 70
   128
 71
     3
 72
     4
 73
     9
 74
     8
  0
VERTEX
  5
2C1
330
2D
100
AcDbEntity
  8
0
 62
     0
100
AcDbFaceRecord
 10
0.0
 20
0.0
 30
0.0
 70
   128
 71
     4
 72
     5
 73
    10
 74
     9
  0
SEQEND
  5
2AF
330
2D
100
AcDbEntity
  8
STUFEN
  0
3DFACE
  5
2E
330
4E
100
AcDbEntity
  8
BODEN
100
AcDbFace
 10
-1030.0
 20
1145.0
 30
0.0
 11
-1030.0
 21
3935.0
 31
0.0
 12
4315.0
 22
3935.0
 32
0.0
 13
4315.0
 23
1145.0
 33
0.0
  0
ENDSEC
  0
SECTION
  2
OBJECTS
  0
DICTIONARY
  5
3B
330
0
100
AcDbDictionary
  3
ACAD_GROUP
350
3C
  3
ACAD_LAYOUT
350
49
  3
ACAD_MLINESTYLE
350
46
  3
ACAD_PLOTSETTINGS
350
48
  3
ACDBHEADERROUNDTRIPXREC
350
2C2
  3
VECTORDRAW_OBJECTS
350
5E
  0
DICTIONARY
  5
2E2
330
58
100
AcDbDictionary
280
     1
  3
ACAD_XREC_ROUNDTRIP
360
2E3
  0
DICTIONARY
  5
3C
102
{ACAD_REACTORS
330
3B
102
}
330
3B
100
AcDbDictionary
  0
DICTIONARY
  5
49
102
{ACAD_REACTORS
330
3B
102
}
330
3B
100
AcDbDictionary
  0
DICTIONARY
  5
46
102
{ACAD_REACTORS
330
3B
102
}
330
3B
100
AcDbDictionary
  3
STANDARD
350
47
  0
DICTIONARY
  5
48
102
{ACAD_REACTORS
330
3B
102
}
330
3B
100
AcDbDictionary
  0
DICTIONARY
  5
2C2
102
{ACAD_REACTORS
330
3B
102
}
330
3B
100
AcDbDictionary
  3
CEPSNTYPE
350
2CB
  3
DIMSTYLEDATA
350
2E1
  3
FINGERPRINTGUID
350
2CC
  3
HYPERLINKBASE
350
2C5
  3
INSUNITS
350
2CA
  3
LAYOUTDICT
350
2C7
  3
LWETCUNION
350
2C9
  3
PLOTSETDICT
350
2C8
  3
PSVPSCALE
350
2CE
  3
PUCSBASE
350
2D1
  3
PUCSORGBACK
350
2D7
  3
PUCSORGBOTTOM
350
2D3
  3
PUCSORGFRONT
350
2D6
  3
PUCSORGLEFT
350
2D4
  3
PUCSORGRIGHT
350
2D5
  3
PUCSORGTOP
350
2D2
  3
PUCSORTHOREF
350
2CF
  3
PUCSORTHOVIEW
350
2D0
  3
STYLESHEET
350
2C6
  3
TSTACKALIGN
350
2C3
  3
TSTACKSIZE
350
2C4
  3
UCSBASE
350
2DA
  3
UCSORGBACK
350
2E0
  3
UCSORGBOTTOM
350
2DC
  3
UCSORGFRONT
350
2DF
  3
UCSORGLEFT
350
2DD
  3
UCSORGRIGHT
350
2DE
  3
UCSORGTOP
350
2DB
  3
UCSORTHOREF
350
2D8
  3
UCSORTHOVIEW
350
2D9
  3
VERSIONGUID
350
2CD
  0
DICTIONARY
  5
5E
102
{ACAD_REACTORS
330
3B
102
}
330
3B
100
AcDbDictionary
  3
SERIALNO
350
5F
  0
XRECORD
  5
2E3
102
{ACAD_REACTORS
330
2E2
102
}
330
2E2
100
AcDbXrecord
102
UCS
 74
     0
 71
     1
 10
0.0
 20
0.0
 30
0.0
 10
1.0
 20
0.0
 30
0.0
 10
0.0
 20
1.0
 30
0.0
146
0.0
 79
     0
102
VIEW
281
     0
  0
MLINESTYLE
  5
47
102
{ACAD_REACTORS
330
46
102
}
330
46
100
AcDbMlineStyle
  2
Standard
 70
     0
  3

 62
   256
 51
90.0
 52
90.0
 71
     2
 49
0.5
 62
   256
  6
BYLAYER
 49
-0.5
 62
   256
  6
BYLAYER
  0
XRECORD
  5
2CB
102
{ACAD_REACTORS
330
2C2
102
}
330
2C2
100
AcDbXrecord
 90
        0
  0
XRECORD
  5
2E1
102
{ACAD_REACTORS
330
2C2
102
}
330
2C2
100
AcDbXrecord
1000
DSTYLE
1002
{
1070
    41
 40
0.2
1070
   342
340
6
1070
   177
 70
   256
1070
   178
 70
   256
1070
    44
 40
0.2
1070
    42
 40
0.05
1070
    73
 70
     0
1070
   174
 70
     1
1070
   172
 70
     1
1070
    74
 70
     0
1070
   340
340
40
1070
   140
 40
0.2
1070
   288
 70
     1
1002
}
  0
XRECORD
  5
2CC
102
{ACAD_REACTORS
330
2C2
102
}
330
2C2
100
AcDbXrecord
  1
{FAEB1C30-E019-11D5-929B-00C0DF256EC4}
  0
XRECORD
  5
2C5
102
{ACAD_REACTORS
330
2C2
102
}
330
2C2
100
AcDbXrecord
  1

  0
XRECORD
  5
2CA
102
{ACAD_REACTORS
330
2C2
102
}
330
2C2
100
AcDbXrecord
 90
        1
  0
XRECORD
  5
2C7
102
{ACAD_REACTORS
330
2C2
102
}
330
2C2
100
AcDbXrecord
340
49
  0
XRECORD
  5
2C9
102
{ACAD_REACTORS
330
2C2
102
}
330
2C2
100
AcDbXrecord
 90
     2048
  0
XRECORD
  5
2C8
102
{ACAD_REACTORS
330
2C2
102
}
330
2C2
100
AcDbXrecord
340
48
  0
XRECORD
  5
2CE
102
{ACAD_REACTORS
330
2C2
102
}
330
2C2
100
AcDbXrecord
 40
0.0
  0
XRECORD
  5
2D1
102
{ACAD_REACTORS
330
2C2
102
}
330
2C2
100
AcDbXrecord
340
0
  0
XRECORD
  5
2D7
102
{ACAD_REACTORS
330
2C2
102
}
330
2C2
100
AcDbXrecord
 10
0.0
 20
0.0
 30
0.0
  0
XRECORD
  5
2D3
102
{ACAD_REACTORS
330
2C2
102
}
330
2C2
100
AcDbXrecord
 10
0.0
 20
0.0
 30
0.0
  0
XRECORD
  5
2D6
102
{ACAD_REACTORS
330
2C2
102
}
330
2C2
100
AcDbXrecord
 10
0.0
 20
0.0
 30
0.0
  0
XRECORD
  5
2D4
102
{ACAD_REACTORS
330
2C2
102
}
330
2C2
100
AcDbXrecord
 10
0.0
 20
0.0
 30
0.0
  0
XRECORD
  5
2D5
102
{ACAD_REACTORS
330
2C2
102
}
330
2C2
100
AcDbXrecord
 10
0.0
 20
0.0
 30
0.0
  0
XRECORD
  5
2D2
102
{ACAD_REACTORS
330
2C2
102
}
330
2C2
100
AcDbXrecord
 10
0.0
 20
0.0
 30
0.0
  0
XRECORD
  5
2CF
102
{ACAD_REACTORS
330
2C2
102
}
330
2C2
100
AcDbXrecord
340
0
  0
XRECORD
  5
2D0
102
{ACAD_REACTORS
330
2C2
102
}
330
2C2
100
AcDbXrecord
 70
     0
  0
XRECORD
  5
2C6
102
{ACAD_REACTORS
330
2C2
102
}
330
2C2
100
AcDbXrecord
  1

  0
XRECORD
  5
2C3
102
{ACAD_REACTORS
330
2C2
102
}
330
2C2
100
AcDbXrecord
 90
        1
  0
XRECORD
  5
2C4
102
{ACAD_REACTORS
330
2C2
102
}
330
2C2
100
AcDbXrecord
 90
       70
  0
XRECORD
  5
2DA
102
{ACAD_REACTORS
330
2C2
102
}
330
2C2
100
AcDbXrecord
340
0
  0
XRECORD
  5
2E0
102
{ACAD_REACTORS
330
2C2
102
}
330
2C2
100
AcDbXrecord
 10
0.0
 20
0.0
 30
0.0
  0
XRECORD
  5
2DC
102
{ACAD_REACTORS
330
2C2
102
}
330
2C2
100
AcDbXrecord
 10
0.0
 20
0.0
 30
0.0
  0
XRECORD
  5
2DF
102
{ACAD_REACTORS
330
2C2
102
}
330
2C2
100
AcDbXrecord
 10
0.0
 20
0.0
 30
0.0
  0
XRECORD
  5
2DD
102
{ACAD_REACTORS
330
2C2
102
}
330
2C2
100
AcDbXrecord
 10
0.0
 20
0.0
 30
0.0
  0
XRECORD
  5
2DE
102
{ACAD_REACTORS
330
2C2
102
}
330
2C2
100
AcDbXrecord
 10
0.0
 20
0.0
 30
0.0
  0
XRECORD
  5
2DB
102
{ACAD_REACTORS
330
2C2
102
}
330
2C2
100
AcDbXrecord
 10
0.0
 20
0.0
 30
0.0
  0
XRECORD
  5
2D8
102
{ACAD_REACTORS
330
2C2
102
}
330
2C2
100
AcDbXrecord
340
0
  0
XRECORD
  5
2D9
102
{ACAD_REACTORS
330
2C2
102
}
330
2C2
100
AcDbXrecord
 70
     0
  0
XRECORD
  5
2CD
102
{ACAD_REACTORS
330
2C2
102
}
330
2C2
100
AcDbXrecord
  1
{FAEB1C32-E019-11D5-929B-00C0DF256EC4}
  0
XRECORD
  5
5F
102
{ACAD_REACTORS
330
5E
102
}
330
5E
100
AcDbXrecord
1000
ncPhVYpfZ3E8RDPZRHsEPk8jD
1070
     4
1070
     6
  0
ENDSEC
  0
EOF
